Senses Fail - Buried A Lie Chords & Tabs

 

Buried A Lie Chords & Tabs

Senses Fail Chords & Tabs

Version: 3 Type: Tab 0 ratings
1 star 2 stars 3 stars 4 stars 5 stars
comments

Buried A Lie Tab

Artist: Senses Fail
Song: Buried A Lie
Tuning: Standard Drop D

Guitar I

Intro
|-----------------------------|
|-----------------------------|
|-----2---------------2-------|
|---0---4---2--0----0---4---2-|
|-4-------4-------4-------4---|
|-----------------------------|

Intro Part II
|-------------------------------------------|
|-------------------------------------------|
|-666-777-14-141414-111111-12-9-999999-1111-|
|-xxx-xxx-x--x-x-x--x-x-x--x--x-xxxxxx-x-x--|
|-444-555-12-121212-9-9-9-/10-7-777777/9-9--|
|-------------------------------------------|

Pre Verse
|-----------------------------------------|
|-----------------------------------------|
|-----------------------------------------|
|-555-000-555-000-55-555-000-555-000-5555-|
|-555-000-555-000-55-555-000-555-000-5555-|
|-555-000-555-000-55-555-000-555-000-5555-|

Verse
|---------------------------------------------------------------------|
|---------------------------------------------------------------------|
|---------------------------------------------------------------------|
|-0000000000000000-4444444444444444-9999999999999999-5555555555555555-|
|-0000000000000000-4444444444444444-9999999999999999-5555555555555555-|
|-0000000000000000-4444444444444444-9999999999999999-5555555555555555-|
PM................ ................ ................ ................

Verse
|--------------------------------------------|
|-222-101010-7777-5555--222-101010-7777-8888-|
|--------------------------------------------|
|--------------------------------------------|
|--------------------------------------------|
|--------------------------------------------|
PM... . . .  .... ....  ... . . .  .... ....

Verse Part II
|----------------------------------------|
|-222-101010-7777-5555--3333333333333333-|
|----------------------------------------|
|----------------------------------------|
|----------------------------------------|
|----------------------------------------|
PM... . . .  .... ....  ,,,,,,,,,,,,,,,,

Chorus
|---------------------------------------|
|-10~--7~--5h7~----10~---7~---5h7---5---|
|---------------------------------7---7-|
|---------------------------------------|
|---------------------------------------|
|---------------------------------------|

Repeat Pre Verse
Repeat Verse
Repeat Chorus 

Bridge
|----------------------------------|
|----------------------------------|
|-7777777777777777-999999-66666666-|
|-xxxxxxxxxxxxxxxx-xxxxxx-xxxxxxxx-|
|-5555555555555555-777777-44444444-|
|----------------------------------|

Bridge
|-----------------------------------------------------|
|-----------------------------------------------------|
|-----------------------------------------------------|
|--------------------------------------------------7~-|
|--------------------------------------------------7~-|
|-444444-000000-999999-777777-444444-000000-999999-7~-|
PM...... ...... ...... ...... ...... ...... ......

Bridge
|------------------------------------------|
|------------------------------------------|
|------------------------------------------|
|------------------------------------------|
|------------------------------------------|
|-555-000-555-000-555-555-000-555-000-5555-|
[ Tab from: http://www.guitartabs.cc/tabs/s/senses_fail/buried_a_lie_tab_ver_3.html ]
Bridge
|---------------------------------------|
|---------------------------------------|
|---------------------------------------|
|-555-000-555-000-555-555-000-5-5555555-|
|-555-000-555-000-555-555-000-5-5555555-|
|-555-000-555-000-555-555-000-5-5555555-|
PM                              .......

Repeat Intro Part II

Ending
|----------------------------------------|
|----------------------------------------|
|-7777777777777777-111111111111-66666666-|
|-xxxxxxxxxxxxxxxx-x-x-x-x-x-x--xxxxxxxx-|
|-5555555555555555-9-9-9-9-9-9--44444444-|
|----------------------------------------|

Ending 
|----------------------------------------|
|----------------------------------------|
|-7777777777777777-111111111111-99999999-|
|-xxxxxxxxxxxxxxxx-x-x-x-x-x-x--xxxxxxxx-|
|-5555555555555555-9-9-9-9-9-9--77777777-|
|----------------------------------------|


|----|
|----|
|----|
|-0~-|
|-0~-|
|-0~-|


Guitar II


Intro clean
|-------------------------|
|-------------------------|
|-------------------------|
|-9999-555555-0000-777777-|
|-9999-555555-0000-777777-|
|-9999-555555-0000-777777-|

Intro Part II
|-------------------------|
|-------------------------|
|-------------------------|
|-9999-555555-0000-777777-|
|-9999-555555-0000-777777-|
|-9999-555555-0000-777777-|

Pre Verse 
|-----------------------------------------|
|-----------------------------------------|
|-----------------------------------------|
|-555-000-555-000-55-555-000-555-000-5555-|
|-555-000-555-000-55-555-000-555-000-5555-|
|-555-000-555-000-55-555-000-555-000-5555-|

Verse 
|---------------------------------------------------------------------|
|---------------------------------------------------------------------|
|---------------------------------------------------------------------|
|-0000000000000000-4444444444444444-9999999999999999-5555555555555555-|
|-0000000000000000-4444444444444444-9999999999999999-5555555555555555-|
|-0000000000000000-4444444444444444-9999999999999999-5555555555555555-|
PM................ ................ ................ ................

Chorus
|-------------------------|
|-------------------------|
|-------------------------|
|-9999-555555-0000-777777-|
|-9999-555555-0000-777777-|
|-9999-555555-0000-777777-|

Repeat Pre Verse 
Repeat Verse
Repeat Chorus 

Bridge
|-----------------------------------|
|-----------------------------------|
|-----------------------------------|
|-55555555555555555555555555555/777-|
|-55555555555555555555555555555/777-|
|-55555555555555555555555555555/777-|

Bridge
|-------5------------------------5----------------|
|-2--3-----7--2--5----0----2--3-----7--2--5-------|
|-------------------------------------------------|
|-------------------------------------------------|
|-------------------------------------------------|
|-------------------------------------------------|

Bridge 
|------------------------------------------|
|------------------------------------------|
|------------------------------------------|
|------------------------------------------|
|------------------------------------------|
|-555-000-555-000-555-555-000-555-000-5555-|

Bridge 
|---------------------------------------|
|---------------------------------------|
|---------------------------------------|
|-555-000-555-000-555-555-000-5-5555555-|
|-555-000-555-000-555-555-000-5-5555555-|
|-555-000-555-000-555-555-000-5-5555555-|
PM                              .......

Repeat Chorus

Ending
|-----------------------------------------|
|-----------------------------------------|
|-----------------------------------------|
|-555-000-555-000-55-555-000-555-000-5555-|
|-555-000-555-000-55-555-000-555-000-5555-|
|-555-000-555-000-55-555-000-555-000-5555-|

Ending
|----|
|----|
|----|
|-0~-|
|-0~-|
|-0~-|
Comments