Senses Fail - Buried A Lie Chords & Tabs

 

Buried A Lie Chords & Tabs

Senses Fail Chords & Tabs

Version: 2 Type: Tab 0 ratings
1 star 2 stars 3 stars 4 stars 5 stars
comments

Buried A Lie Tab

e|----------------------------------|
B|----------------------------------|
G|-----2------------------2---------|
D|---0-----4---2----4---0-----4---2-|
A|-4---------4--------4---------4---|
D|----------------------------------|

 chorus
e|---------------------------------------------------------|
B|---------------------------------------------------------|
G|-666-777-1414141414141414-1111-10-/-11--99999999--111111-|
D|-xxx-xxx--x-x-x-x-x-x-x-x-x-x---x-/-x---xxxxxxxx---x-x-x-|  x2
A|-444-555-1212121212121212-9-9---8-/-9---77777777---9-9-9-|
D|---------------------------------------------------------|

 fill
e|-------------------------|
B|-------------------------|
G|-------------------------|
D|-555-000-555-000-55-00---|  x2
A|-555-000-555-000-55-00---|
D|-555-000-555-000-55-00---|

 verse (palm muted)
e|--------------------------|
B|--------------------------|
G|-7-----11-----------------|
D|-7 x16-11 x16-9-----5-----|  x2
A|-5------9-----9 x16-5 x16-|
D|--------------9-----5-----|

e|---------------------------------------------------------|
B|---------------------------------------------------------|
G|-666-777-1414141414141414-1111-10-/-11--99999999--111111-|
D|-xxx-xxx--x-x-x-x-x-x-x-x-x-x---x-/-x---xxxxxxxx---x-x-x-|  x2
A|-444-555-1212121212121212-9-9---8-/-9---77777777---9-9-9-|
D|---------------------------------------------------------|

e|-------------------------|
B|-------------------------|
G|-------------------------|
D|-555-000-555-000-55-00---|  x1
A|-555-000-555-000-55-00---|
D|-555-000-555-000-55-00---|
[ Tab from: http://www.guitartabs.cc/tabs/s/senses_fail/buried_a_lie_tab_ver_2.html ]
e|--------------------------|
B|--------------------------|
G|-7-----11-----------------|
D|-7 x16-11 x16-9-----5-----|  x2
A|-5------9-----9 x16-5 x16-|
D|--------------9-----5-----|


e|---------------------------------------------------------|
B|---------------------------------------------------------|
G|-666-777-1414141414141414-1111-10-/-11--99999999--111111-|
D|-xxx-xxx--x-x-x-x-x-x-x-x-x-x---x-/-x---xxxxxxxx---x-x-x-|  x4
A|-444-555-1212121212121212-9-9---8-/-9---77777777---9-9-9-|
D|---------------------------------------------------------|

e|--------------------------|
B|--------------------------|
G|-7-----11-----------------|
D|-7 x16-11 x16-9-----5-----|  x2
A|-5------9-----9 x16-5 x16-|
D|--------------9-----5-----|

e|-------------------------|
B|-------------------------|
G|-------------------------|
D|-555-000-555-000-55-00---|  x4
A|-555-000-555-000-55-00---|
D|-555-000-555-000-55-00---|

e|------------------------------------------------------------|
B|------------------------------------------------------------|
G|-666-777-1414141414141414-1111-10-/-11--99999999--111111----|
D|-xxx-xxx--x-x-x-x-x-x-x-x-x-x---x-/-x---xxxxxxxx---x-x-x----|  x4
A|-444-555-1212121212121212-9-9---8-/-9---77777777---9-9-9----|
D|------------------------------------------------------------|

e|----------------------         e|----------------------|
B|----------------------         B|----------------------|
G|----------------------         G|----------------------|
D|-555-000-555-000-55-00 x2      D|0~~~~~~~~-------------|
A|-555-000-555-000-55-00         A|0~~~~~~~~-------------|
D|-555-000-555-000-55-00         G|0~~~~~~~~-------------|
Comments