Senses Fail - Buried A Lie Chords & Tabs

 

Buried A Lie Chords & Tabs

Senses Fail Chords & Tabs

Version: 1 Type: Bass Tab 0 ratings
1 star 2 stars 3 stars 4 stars 5 stars
comments

Buried A Lie Bass Tab

This is my first tab so be nice.
Its not that hard, even if it looks complicated. I'm almost possitive its pretty 
and I did it all by ear so here it goes.

Intro:
G|---------444-----------------444------------------------------------------|
D|-7(hold)-----5-555-----7777------5-555-----7777-5-5-555-5-55--------------|
A|-------------------555-----------------555-------5-5---5-5----------------|
E|--------------------------------------------------------------------------|

Verse 1: (2x)
G|---------------------4444-4444--------------------------------------------|
D|-----------4444-4444-----------5555-5555----------------------------------|
A|-5555-5555----------------------------------------------------------------|
E|--------------------------------------------------------------------------|
[ Tab from: http://www.guitartabs.cc/tabs/s/senses_fail/buried_a_lie_btab.html ]
Chorus:
G|-44--------------44-------------------------------------------------------|
D|----5555----7777----5555----7777-5-5-55-----------------------------------|
A|---------55--------------55-------5-5-------------------------------------|
E|--------------------------------------------------------------------------|

Verse again(2x again)
Chorus(x2)

Bridge:
G|--------------------------------------------------------------------------|
D|-5-5-55-5-5-55(pause for a few seconds)-5-5-555-5-55----------------------|
A|--5-5----5-5-----------------------------5-5---5-5------------------------|
E|--------------------------------------------------------------------------|

Ending:
G|-444---------------444---------------444---------------444----------------|
D|-----5555-----7777-----5555-----7777-----5555-----7777-----5555-----7777--|
A|----------555---------------555---------------555---------------555-------|
E|--------------------------------------------------------------------------|

G|--------------------------------------------------------------------------|
D|-5-5-555-5-55-------------------------------------------------------------|
A|--5-5---5-5--5(hold)------------------------------------------------------|
E|--------------------------------------------------------------------------|

There you go.
Comments