Senses Fail - Bite To Break Skin Chords & Tabs

 

Bite To Break Skin Chords & Tabs

Senses Fail Chords & Tabs

Version: 2 Type: Tab 0 ratings
1 star 2 stars 3 stars 4 stars 5 stars
comments

Bite To Break Skin Tab

   
both guitars tuned in D tuning

h (hold)
in the intro instead of plucking the on the 10th fret press with your fingers

guitar1 intro:
|------------------------8------------------------8----------------|
|------------------------------------------------------------------|
|----9h-10-9h-10 9h-10-------9h-10-9h-10-9h-10---------------------|
|------------------------------------------------------------------|
|------------------------------------------------------------------|
|------------------------------------------------------------------|

guitar2 intro with G1
|------------------------------------------------------------------|
|------------------------------------------------------------------|
|------------------------------------------------------------------|
|----0------------8-------------7----------------------------------|
|----0-let ring---8-let ring----7-let ring-------------------------|
|----0------------8-------------7----------------------------------|


Grt 1
|-------------------------------------------------------8----------|
|-------------------8----------------6-----------------------------|
|--9-10-9-10-9-10------7-9-7-9-7-9------9-10-9-10-9-10-------------|
|------------------------------------------------------------------|
|------------------------------------------------------------------|
|------------------------------------------------------------------|


grt 2 harmonized with grt 1
|------------------------------------------------------------------|
|------------------------------------------------------------------|
|------------------------------------------------------------------|
|--0000000000------8888888888---------7777777777-------------------|
|--0000000000------8888888888---------7777777777-------------------|
|--0000000000------8888888888---------7777777777-------------------|

Verse grt 1&2
|---------------------------------------------------------------------|
|---------------------------------------------------------------------|
|---------------------------------------------------------------------|
|---0---------------0------0----0--0----------------------------------|
|---0-let ring------0LR----0----0--0----------------------------------|
|---0---------------0------0----0--0----------------------------------|
                 PM^--------------------------------------------------|

grt 1&2 pre chorus
|--------------------------------------------------------------------|
|--------------------------------------------------------------------|
|--------------------------------------------------------------------|
|--8-----7----8-----7-----8------------------------------------------|
|--8-----7----8-----7-----8------------------------------------------|
|--8-----7----8-----7-----8------------------------------------------|
[ Tab from: http://www.guitartabs.cc/tabs/s/senses_fail/bite_to_break_skin_tab_ver_2.html ]
chorus grt 1
|-------------------------------------------------------8----------|
|-------------------8----------------6-----------------------------|
|--9-10-9-10-9-10------7-9-7-9-7-9------9-10-9-10-9-10-------------|
|------------------------------------------------------------------|
|------------------------------------------------------------------|
|------------------------------------------------------------------|


grt 2 chorus
|------------------------------------------------------------------|
|------------------------------------------------------------------|
|------------------------------------------------------------------|
|---0-----8------3----2--------------------------------------------|
|---0-----8------3----2--X2----------------------------------------|
|---0-----8------3----2--------------------------------------------|


Verse grt 1&2
|--------------------------------------------------------------------|
|--------------------------------------------------------------------|
|--------------------------------------------------------------------|
|---0---------------0------0----0--0---------------------------------|
|---0-let ring------0LR----0----0--0---------------------------------|
|---0---------------0------0----0--0---------------------------------|
                 PM^-------------------------------------------------|

grt 1&2 pre chorus
|------------------------------------------------------------------|
|------------------------------------------------------------------|
|------------------------------------------------------------------|
|--8-----7----8-----7-----8----------------------------------------|
|--8-----7----8-----7-----8----------------------------------------|
|--8-----7----8-----7-----8----------------------------------------|

grt 2 interlude
|---------------------------------------------------------------------|
|---------------------------------------------------------------------|
|---------------------------------------------------------------------|
|--00000000000----88888888888----77777777777---88888888888------------|
|--00000000000----88888888888----77777777777---88888888888------------|
|--00000000000----88888888888----77777777777---88888888888------------|
PM^^^^^^^^^^^^^^^^^^^^^^^^^^^^^^^^^^^^^^^^^^^^^^^^^^^^^^^^^^^^^^^^^^


grt 1 interlude (after grt 2 plays solo)
|---------------------------------------------------------------------|
|---------------------------------------------------------------------|
|---------------------------------------------------------------------|
|--14-14-14-14-14-14----10-10-10-10-10--5-5-5-5-5-5-5----10-10-10-10--|Repeat
|--x--x--x--x--x--x-----x-x-x-x-x-x-x---x-x-x-x-x-x-x----x-x-x-x-x-x--|
|--12-12-12-12-12-12----8-8-8-8-8-8-8---3-3-3-3-3-3-3----8-8-8-8-8-8--|


both grts outro    (figure out stuming on your own)
|-------------------------------------------------------------------------|
|-------------------------------------------------------------------------|
|-------------------------------------------------------------------------|
|---0000---88888---77777----88888----8--7--8---10--8--7-------------------|x2
|---0000x2-88888x2-77777-x2-88888----8--7--8---10--8--7-------------------|
|---0000---88888---77777----88888----8--7--8---10--8--7-------------------|
Comments