Senses Fail - Angela Baker And My Obsession With Fire Chords & Tabs

 

Angela Baker And My Obsession With Fire Chords & Tabs

Senses Fail Chords & Tabs

Version: 1 Type: Tab 0 ratings
1 star 2 stars 3 stars 4 stars 5 stars
comments

Angela Baker And My Obsession With Fire Tab

   
SENSES FAIL-ANGELA BAKER AND MY OBSESSION WITH FIRE
ALBUM-LET IT ENFOLD YOU(TRACK 12)
TABBED BY J DIZZLE
DROP D TUNING

INTRO
Guitar 1 INTRO
(Quieter part)
E|---0000000-|
B|---5405405-|
G|-----------|
D|2----------|
A|2----------|
D|2----------|

E|00000000000000000000000000000000000000000000000
B|54054050540540507407407054054050540540505405405
G|-----------------------------------------------|
D|-----------------------------------------------|
A|-----------------------------------------------|
D|-----------------------------------------------|

E|----0-----0---------0-----0-----0--------------|
B|--------------------------------0--------------|
G|1-2---1-2---1-2-1-2---1-2---1-2-1--------------|
D|-----------------------------------------------|
A|-----------------------------------------------|
D|-----------------------------------------------|

Guitar 2 INTRO
E|-------------------------------------------------------------------|
B|-------------------------------------------------------------------|
G|-------------------------------------------------------------------|
D|222222222222-444-555555555555555-000000000000000-7777777777777777--|
A|222222222222-444-555555555555555-000000000000000-7777777777777777--| X2
D|222222222222-444-555555555555555-000000000000000-7777777777777777--|

E|----------------------------------------|
B|----------------------------------------|
G|----------------------------------------|
D|2-2-2222-0-2-2-2222-0-2-----------------|
A|2-2-2222-0-2-2-2222-0-2-----------------|
D|2-2-2222-0-2-2-2222-0-2--*PICK SCRAPE*--|
[ Tab from: http://www.guitartabs.cc/tabs/s/senses_fail/angela_baker_and_my_obsession_with_fire_tab.html ]
VERSES
Guitar 1 (x2)
| E|-----0000000000     E|-----0000000000-----00000000000-|
| B|-----5555444422     B|-----5555444422-----55554455775-|
| G|---------------     G|--------------------------------|
| D|4-4------------ X2  D|2-2-------------2-2-------------|
| A|4-4------------     A|2-2-------------2-2-------------|
| D|4-4------------     D|2-2-------------2-2-------------|

E|000000000000000000000000000000000000000000000000000000000000000
B|555555555555555544444455555577779999977777755554444440000000000
G|---------------------------------------------------------------|
D|---------------------------------------------------------------|
A|---------------------------------------------------------------|
D|---------------------------------------------------------------|

VERSES
Guitar 2
E|-----|-G---|    E|-----|-G---|
B|-----|-U---|    B|-----|-U---|
G|-----|-I-1-|    G|-----|-I-1-|
D|-4-4-|-T---|X2  D|-2-2-|-T---|X2
A|-4-4-|-A---|    A|-2-2-|-A---|
D|-4-4-|-R---|    D|-2-2-|-R---|

E|-----------------------------------------------------------|
B|-----------------------------------------------------------|
G|-----------------------------------------------------------|
D|777-77-7-7777-555-5-5-5-5555-222-2-2-2-2222-222-2-2-2-2222-|
A|777-77-7-7777-555-5-5-5-5555-222-2-2-2-2222-222-2-2-2-2222-|
D|777-77-7-7777-555-5-5-5-5555-222-2-2-2-2222-222-2-2-2-2222-|
  ... .. . .... ... . . . .... ... . . . .... ... . . . .... P.M.

THE CHORUS IS THE INTRO
THE VERSES ARE THE SAME

Bridge(Both Guitars)
E|----0--0--0---|
B|----5--4--2---|
G|--------------|X2
D|-4----------2-|
A|-4----------2-|
D|-4----------2-|

THE REST OF THE SONG IS GUITAR 2'S P.M. PART, BUT U SHOULD KNOW WHEN TO P.M. AND 2 NOT.
Comments