Senses Fail - American Death Chords & Tabs

 

American Death Chords & Tabs

Senses Fail Chords & Tabs

Version: 1 Type: Tab 0 ratings
1 star 2 stars 3 stars 4 stars 5 stars
comments

American Death Tab

   
Song: American Death (Demo)
Album: Let it Enfold You - Limited Edition
Written by: Senses Fail
Tabbed by: Garrett Zablocki
-------------------------------
Legend:

b = Bend
s = Slide
h = hammeron
p = pull-off
v = vibrato
-------------------------------
Tuning: Drop D

D A D G b E
-------------------------------
Verse/Intro
Guitar 1: Played for entire intro and both verses.

E|------------------------------------------------------------------|
B|------------------------------------------------------------------|
G|------------------------------------------------------------------|
D|------------------------3p2---------------------------------------|
A|-5--5-3-v5--5-3-v5--5-3-----3-3s5--5--5-3-5--5-3-5--5-3-----------|
D|--------------------------------------------------------5-3-0-0---|

Guitar 2: Harmony for the Verse
E|------------------------------------------------------------------|
B|------------------------------------------------------------------|
G|------------------------------------------------------------------|
D|------------------------7p5---------------------------------------|
A|-8--8-7-v8--8-7-v8--8-7-----7-7s8--8--8-7-8--8-7-8--8-7-----------|
D|--------------------------------------------------------8-7-3-3---|

-------------------------------
Pre-Chorus
Guitar 1 & 2: Listen to song for rhythm.

E|------------------------------------------------------------------------------------|
B|------------------------------------------------------------------------------------|
G|------------------------------------------------------------------------------------|
D|-33-00-00--55-00-00-33-00-3-00-3-0-5-3-00--33-00-00--55-00-00-33-00-3-00-3-0-5-3-00-|
A|-33-00-00--55-00-00-33-00-3-00-3-0-5-3-00--33-00-00--55-00-00-33-00-3-00-3-0-5-3-00-|
D|-33-00-00--55-00-00-33-00-3-00-3-0-5-3-00--33-00-00--55-00-00-33-00-3-00-3-0-5-3-00-|

E|------------|
B|------------|
G|------------|
D|-3--5-10-10-|
A|-3--5-8--8--|
D|-3--5-8--8--|

------------------------------
Chorus:
Guitar 1 & 2: Listen to song for rhythm.

E|------------------------------------------------------------------|
B|------------------------------------------------------------------|
G|------------------------------------------------------------------|
D|-0-3-0-8-10--0-3-0-5-5---0-3-0-8-10-10----------------------------|
A|-0-3-0-8-10--0-3-0-5-3---0-3-0-8-10-8-----------------------------|
D|-0-3-0-8-10--0-3-0-5-2---0-3-0-8-10-7-----------------------------|

------------------------------
Post-Chorus: ("off-time part")
Guitar 1 & 2: Listen to song for rhythm.

E|------------------------------------------------------------------|
B|------------------------------------------------------------------|
G|------------------------------------------------------------------|
D|-0-3-5-0-3-5-0-3-5-0-8-10---0-3-5-0-3-5-0-3-5-0-7-5-3-5-0---------|
A|-0-3-5-0-3-5-0-3-5-0-8-10---0-3-5-0-3-5-0-3-5-0-7-5-3-3-0---------|
D|-0-3-5-0-3-5-0-3-5-0-8-10---0-3-5-0-3-5-0-3-5-0-7-5-3-2-0---------|

-------------------------------
Bridge:
Guitar 1: Main
[ Tab from: http://www.guitartabs.cc/tabs/s/senses_fail/american_death_tab.html ]
E|------------------------------------------------------------------|
B|------------------------------------------------------------------|
G|------------------------------------------------------------------|
D|-0-------3---0------------0-------3---0--3-3h5-3------------------|
A|-0-0h3h5-----0--0h3h5-3---0-0h3h5-----0---------------------------|
D|-0-----------0------------0-----------0---------------------------|

Guitar 2: Harmony
E|------------------------------------------------------------------|
B|------------------------------------------------------------------|
G|----------------------------------2------2-2h3-2------------------|
D|--------------------------0-0h2h3-----0---------------------------|
A|--------------------------0-----------0---------------------------|
D|--------------------------0-----------0---------------------------|

-------------------------------

Solo:
E|-----------10---------------------------------------------------------------------------------------|
B|--------10-----13p10--------------------10------------------------------------11p10-----------------|
G|-12b14----------------12--------10----------12--12p10--12b14-12p10h12-12p10---------12-12-10--------|
D|--------------------------10h12-----10-------------------------------------------------------12-----|
A|----------------------------------------------------------------------------------------------------|
D|----------------------------------------------------------------------------------------------------|


E|-----------10--------------------------------------13----------15b17-15--13h15p13-13-13s12----------|
B|--------10-----13p10----------------11-11p10-11s15----15-13-13-----------------------------13s10----|
G|-12b14----------------12--------10------------------------------------------------------------------|
D|--------------------------10h12---------------------------------------------------------------------|
A|----------------------------------------------------------------------------------------------------|
D|----------------------------------------------------------------------------------------------------|

E|-----------10---------------------------------------------------------------------------------------|
B|--------10-----13p10--------------------10------------------------------------11p10-----------------|
G|-12b14----------------12--------10----------12--12p10--12b14-12p10h12-12p10---------12-12-10--------|
D|--------------------------10h12-----10-------------------------------------------------------12-----|
A|----------------------------------------------------------------------------------------------------|
D|----------------------------------------------------------------------------------------------------|


E|-----------10--------------------------------------13----------15b17-15--13h15p13-13-13s12----------|
B|--------10-----13p10----------------11-11p10-11s15----15-13-13-----------------------------13-13s15-|
G|-12b14----------------12--------10------------------------------------------------------------------|
D|--------------------------10h12---------------------------------------------------------------------|
A|----------------------------------------------------------------------------------------------------|
D|----------------------------------------------------------------------------------------------------|

E|-------------------------15b17-15p13s12-------|
B|-15-15-13-15-15-13-15p13---------------13s15--|
G|----------------------------------------------|
D|----------------------------------------------|
A|----------------------------------------------|
D|----------------------------------------------|
Comments