Senses Fail - 187 Chords & Tabs

 

187 Chords & Tabs

Senses Fail Chords & Tabs

Version: 1 Type: Tab 0 ratings
1 star 2 stars 3 stars 4 stars 5 stars
comments

187 Tab

INTRO AND VERSE


.=pm /=slide

GUITAR # 1
e----------0----------------0----------------0----------------0-------|
b------3-----3---3------3-----3---3------3-----3---3------3-----3--3--|
g--2-2---2-----2----4-4---4-----4----0-0---0-----0----0-0---0-----0---|
d---------------------------------------------------------------------|
a---------------------------------------------------------------------|
e---------------------------------------------------------------------|

INTRO AND VERSE
 CLEAN
GUITAR # 2 (figure out how many times its kinda tricky)
e-8-8-8-8-8--6-6-6-6-6--8-8-8-8-8-8-8-8-8-8------------------------------|
b--6-6-6-6-6--4-4-4-4-4--6-6-6-6-6-6-6-6-6-6-----------------------------|
g------------------------------------------------------------------------|
d------------------------------------------------------------------------|
a------------------------------------------------------------------------|
e------------------------------------------------------------------------|

   CLEAN                      OR
which ever one sounds better to you
GUITAR # 2 (figure out how many times its kinda tricky)
e-10-10-10-10-10--8-8-8-8-8--10-10-10-10-10-10-10-10-10-10-------------|
b---8--8--8--8--8--6-6-6-6-6---8--8--8--8--8--8--8--8--8--8------------|
g----------------------------------------------------------------------|
d----------------------------------------------------------------------|
a----------------------------------------------------------------------|
e----------------------------------------------------------------------|


VERSE
e----------------------------------------------------------------------|
b----------------------------------------------------------------------|
g----------------------------------------------------------------------|
d77777777-55555555-444444444444/33-------------------------------------|
a77777777-55555555-444444444444/33-------------------------------------|
e55555555-33333333-222222222222/11-------------------------------------|
 ........ ........ .......... .

chorus
e-----------------------------------------------------------------------|
b-----both guitars----------------guitar 1------------------------------|
g-7-7-7-7-7-7-8-9-9-9-9-9-9-77777777/99999999/1010101010101010----------|
d-7-7-7-7-7-7-8-9-9-9-9-9-9-xxxxxxxx/xxxxxxxx/x-x--x-x-x-x-x-x----------|
a-5-5-5-5-5-5-6-7-7-7-7-7-7-55555555/77777777/8-8--8-8-8-8-8-8----------|
e-----------------------------------------------------------------------|

e-------------------------------------------------------------------------|
b-----guitar 1------------------------------------------------------------|
g1212121212121212/141414141414141414--------------------------------------|
dx-x-x-x-x-x-x-x--xxxxxxxxxxxxxxxxxx--------------------------------------|
a1010101010101010/121212121212121212--------------------------------------|
e-------------------------------------------------------------------------|

guitar 2 then both guitars until the intro comes up again
e---------------------------|
b---------------------------|
g---------------------------|
d7-7-7-7-7-7-8-9-9-9-9-9-9--|
a7-7-7-7-7-7-8-9-9-9-9-9-9--|
e5-5-5-5-5-6-6 7 7 7 7 7 7--|

INTRO again
[ Tab from: http://www.guitartabs.cc/tabs/s/senses_fail/187_tab.html ]
verse again
e----------------------------------------------------------------------|
b----------------------------------------------------------------------|
g----------------------------------------------------------------------|
d77777777-55555555-444444444444/33-------------------------------------|
a77777777-55555555-444444444444/33-------------------------------------|
e55555555-33333333-222222222222/11-------------------------------------|
 ........ ........ .......... .

e-----------------------------------------------------------------------|
b-----------------------------------------------------------------------|
g-99 7 97 99 979 6------------------------------------------------------|
d-----------------------------------------------------------------------|
a-----------------------------------------------------------------------|
e-----------------------------------------------------------------------|

CHORUS

break
e-------|
b-------|
g-------|
d33333333
a33333333
e11111111
 ........


e-----------------------------------------------------------------------|
b-----both guitars----------------guitar 1------------------------------|
g-7-7-7-7-7-7-8-9-9-9-9-9-9-77777777/99999999/1010101010101010----------|
d-7-7-7-7-7-7-8-9-9-9-9-9-9-xxxxxxxx/xxxxxxxx/x-x--x-x-x-x-x-x----------|
a-5-5-5-5-5-5-6-7-7-7-7-7-7-55555555/77777777/8-8--8-8-8-8-8-8----------|
e-----------------------------------------------------------------------|

e-------------------------------------------------------------------------|
b-----guitar 1------------------------------------------------------------|
g1212121212121212/141414141414141414--------------------------------------|
dx-x-x-x-x-x-x-x--xxxxxxxxxxxxxxxxxx--------------------------------------|
a1010101010101010/121212121212121212--------------------------------------|
e-------------------------------------------------------------------------|

this is my first ever tab so... uh chill with the "this tab sucks"

LYRICS


It's so nice sitting very still,
in a room where no one else can feel
the pain that breaks my heart each day, I'm not ok.
Sunlight shining through my window,
let's me know that I'm still alive
Why did I ever let you inside my heart? I'm such a fool.
Paint my face in shades of blood and grey
and take the seat right next to me
But I should've known that you were a killer. But now I'm dead.

A gaping hole, shot through my heart
A lost connection from your poison dart
Shot from your tongue to end my life.
But if you're blowing at the fire to light your strife.

You'll never know. You'll never know.
The hardest thing about dying is, knowing you'll never see the light of day.

A gaping hole shot...(shot through my heart)
A lost connection from your poison dart.
My head now spins and my ears bleed gold.
I try so fucking hard, but I can't fit your mold.

The hardest thing about dying is, knowing you'll never see the light of day. [x2]

You ripped my heart out, you tore my eyes out, now you're gonna pay
I'll stab you one time.
I'll eat your heart out so you feel my pain.
Don't you know that I always see you in all of my dreams?
I wanna kill you. I wanna kill you. Now I'm insane. [x3]


email me for corrections
Lessthanjohn459@aol.com
Comments