Sense Field - Fire Inside Chords & Tabs

 

Fire Inside Chords & Tabs

Sense Field Chords & Tabs

Version: 1 Type: Tab 0 ratings
1 star 2 stars 3 stars 4 stars 5 stars
comments

Fire Inside Tab

Sense Field - Fire Inside You (Guitar Tab)
Tune Down  Step

  Riff 1        Riff 2

E-------------|-------------|--------------------------------------|
B-------------|-------------|--------------------------------------|
G-7-----------|-7-----------|--------------------------------------|
D-7-7-7-7-7-7-|-7-7-3-3-3-3-|--------------------------------------|
A-5-7-7-7-7-7-|-5-7-3-3-3-3-|--------------------------------------|
E---5-5-5-5-5-|---5-1-1-1-1-|--------------------------------------|

Chorus                              Then...

E---------------------------------|-------------|------------------|
B---------------------------------|-------------|------------------|
G-5-5-5-5-5-5-5-5-----------------|-7-----------|------------------|
D-5-5-5-5-5-5-5-5-5-5-5-5-5-5-5-5-|-7-7-3-3-3-3-|------------------|
A-3-3-3-3-3-3-3-3-5-5-5-5-5-5-5-5-|-5-7-3-3-3-3-|------------------|
E-3-3-3-3-3-3-3-3-3-3-3-3-3-3-3-3-|-5-5-1-1-1-1-|------------------|

Outro
[ Tab from: http://www.guitartabs.cc/tabs/s/sense_field/fire_inside_tab.html ]
E---------------------|---------------------|------------------|
B---------------------|---------------------|------------------|
G-7-------------------|-7-----------------5-|-7----------------|
D-7-7-------5-------5-|-7-7-------7---------|-7-7/-------------|
A-5-7-5/7/5---5/7/5---|-5-7-5/7/5---5/7/5---|-5-7/-------------|
E-5-5-----------------|-5-5-----------------|-5-5/-------------|





Sense Field - Fire Inside You
Lyrics

Almost Crushed by the wave
How and why they stay so long?
How love can turn to hate
Turn right to wrong
Once we start we never stop no matter what

There's a fire inside you
That'll give you hope when there's none
There's a fire inside you
That'll give you strength when you're not strong

It'll fight 'til you fight back
Brace yourself when they attack
You can feel it now it's in your blood
Fell it rush in like a flood
'Cause Once we start we never stop no matter what

There's a fire inside you
That'll give you hope when there's none
There's a fire inside you
That'll give you strength when you're not strong
Comments