Sense Field - Fire Inside Chords & Tabs

 

Fire Inside Chords & Tabs

Sense Field Chords & Tabs

Version: 1 Type: Bass Tab 0 ratings
1 star 2 stars 3 stars 4 stars 5 stars
comments

Fire Inside Bass Tab

Sense Field - Fire Inside You (Bass Tab)
Tune Down  Step

Main Riff       Verse Fill
[ Tab from: http://www.guitartabs.cc/tabs/s/sense_field/fire_inside_btab.html ]
G-------------|-------------|--------------------------------------|
D-------------|-------------|--------------------------------------|
A-5-----------|-5-----------|--------------------------------------|
E---5-5-5-5-5-|---5-1-1-1-1-|--------------------------------------|

Chorus

G---------------------------------|-------------|
D---------------------------------|-------------|
A-3-3-3-3-3-3-3-3-----------------|-5-----------|
E-----------------5-5-5-5-5-5-5-5-|---5-1-1-1-1-|

Outro - Main Riff
Comments