Send More Paramedics - Necromancer Chords & Tabs

 

Necromancer Chords & Tabs

Send More Paramedics Chords & Tabs

Version: 1 Type: Tab 0 ratings
1 star 2 stars 3 stars 4 stars 5 stars
comments

Necromancer Tab

----------------------------------------------------------------------------
		      Necromancer - Send More Paramedics
----------------------------------------------------------------------------
Tabbed by: Sam Johnson
Email: elcapitan@charter.net

Tuning: Drop D, then down  step

    hold
Eb |--------------------------------|--------------------------------|
Bb |--------------------------------|--------------------------------|
Gb |--------------------------------|--------------------------------|
Db |--------------------------------|--------------------------------|
Ab |0-------------------------------|---------------/12------11------|
Db |0-------------------------------|---------------/12------11------|

    hold
Eb |--------------------------------|--------------------------------|
Bb |--------------------------------|--------------------------------|
Gb |--------------------------------|--------------------------------|
Db |--------------------------------|--------------------------------|
Ab |(11)----------------------------|(11)----------------------------|
Db |(11)----------------------------|(11)----------------------------|

    hold
Eb |--------------------------------|--------------------------------|
Bb |--------------------------------|--------------------------------|
Gb |--------------------------------|--------------------------------|
Db |--------------------------------|--------------------------------|
Ab |0-------------------------------|----------------/15-----11------|
Db |0-------------------------------|----------------/15-----11------|

    hold                        PM-----------------------------------|
Eb |--------------------------------|--------------------------------|
Bb |--------------------------------|--------------------------------|
Gb |--------------------------------|--------------------------------|
Db |--------------------------------|--------------------------------|
Ab |(11)------------------------0---|2---3---2---0---2---3---2---0---|
Db |(11)------------------------0---|2---3---2---0---2---3---2---0---|

    hold
Eb |--------------------------------|--------------------------------|
Bb |--------------------------------|--------------------------------|
Gb |--------------------------------|--------------------------------|
Db |--------------------------------|--------------------------------|
Ab |0-------------------------------|---------------/12------11------|
Db |0-------------------------------|---------------/12------11------|

    hold
Eb |--------------------------------|--------------------------------|
Bb |--------------------------------|--------------------------------|
Gb |--------------------------------|--------------------------------|
Db |--------------------------------|--------------------------------|
Ab |(11)----------------------------|(11)----------------------------|
Db |(11)----------------------------|(11)----------------------------|

    hold
Eb |--------------------------------|--------------------------------|
Bb |--------------------------------|--------------------------------|
Gb |--------------------------------|--------------------------------|
Db |--------------------------------|--------------------------------|
Ab |0-------------------------------|----------------/15-----11------|
Db |0-------------------------------|----------------/15-----11------|

    hold
Eb |--------------------------------|--------------------------------|
Bb |--------------------------------|--------------------------------|
Gb |--------------------------------|--------------------------------|
Db |--------------------------------|--------------------------------|
Ab |(11)----------------------------|(11)----------------------------|
Db |(11)----------------------------|(11)----------------------------|

    PM---------------------|         PM---------------------|
Eb |--------------------------------|--------------------------------|
Bb |--------------------------------|--------------------------------|
Gb |------------------------8-\(7)--|------------------------6-------|
Db |------------------------8-\(7)--|------------------------6-------|
Ab |0---0---0---0---0---0---6-\(5)--|0---0---0---0---0---0---4-------|
Db |0---0---0---0---0---0-----------|0---0---0---0---0---0-----------|

    PM---------------------|    PM----------|    PM---------|
Eb |--------------------------------|--------------------------------|
Bb |--------------------------------|--------------------------------|
Gb |------------------------10------|--------5---------------13------|
Db |------------------------9-------|--------5---------------13------|
Ab |0---0---0---0---0---0---8---0---|0---0---7---0---0---0---11------|
Db |0---0---0---0---0---0-------0---|0---0-------0---0---0-----------|

    PM---------|        PM-|         PM---------|        PM-|
Eb |--------------------------------|--------------------------------|
Bb |--------------------------------|--------------------------------|
Gb |------------8-\(7)------8-\(7)--|------------8-\(7)------6-------|
Db |------------8-\(7)------8-\(7)--|------------8-\(7)------6-------|
Ab |0---0-0-0---6-\(5)--0---6-\(5)--|0---0-0-0---6-\(5)--0---4-------|
Db |0---0-0-0-----------0-----------|0---0-0-0-----------0-----------|

    PM---------|        PM-|         PM----------|   PM-----|
Eb |--------------------------------|--------------------------------|
Bb |--------------------------------|--------------------------------|
Gb |------------8-\(7)------8-\(7)--|--------------------------------|
Db |------------8-\(7)------8-\(7)--|10--101010--9---1313131313------|
Ab |0---0-0-0---6-\(5)--0---6-\(5)--|8---8-8-8---7---1111111111------|
Db |0---0-0-0-----------0-----------|--------------------------------|

    PM---------|        PM-|         PM---------|        PM-|
Eb |--------------------------------|--------------------------------|
Bb |--------------------------------|--------------------------------|
Gb |------------8-\(7)------8-\(7)--|------------8-\(7)------6-------|
Db |------------8-\(7)------8-\(7)--|------------8-\(7)------6-------|
Ab |0---0-0-0---6-\(5)--0---6-\(5)--|0---0-0-0---6-\(5)--0---4-------|
Db |0---0-0-0-----------0-----------|0---0-0-0-----------0-----------|

    PM---------|        PM-|         PM----------|   PM-----|
Eb |--------------------------------|--------------------------------|
Bb |--------------------------------|--------------------------------|
Gb |------------8-\(7)------8-\(7)--|--------------------------------|
Db |------------8-\(7)------8-\(7)--|10--101010--9---1313131313------|
Ab |0---0-0-0---6-\(5)--0---6-\(5)--|8---8-8-8---7---1111111111------|
Db |0---0-0-0-----------0-----------|--------------------------------|

    PM---------|        PM-|         PM---------|        PM-|
Eb |--------------------------------|--------------------------------|
Bb |--------------------------------|--------------------------------|
Gb |------------8-\(7)------8-\(7)--|------------8-\(7)------6-------|
Db |------------8-\(7)------8-\(7)--|------------8-\(7)------6-------|
Ab |0---0-0-0---6-\(5)--0---6-\(5)--|0---0-0-0---6-\(5)--0---4-------|
Db |0---0-0-0-----------0-----------|0---0-0-0-----------0-----------|

    PM---------|        PM-|         PM----------|   PM-----|
Eb |--------------------------------|--------------------------------|
Bb |--------------------------------|--------------------------------|
Gb |------------8-\(7)------8-\(7)--|--------------------------------|
Db |------------8-\(7)------8-\(7)--|10--101010--9---1313131313------|
Ab |0---0-0-0---6-\(5)--0---6-\(5)--|8---8-8-8---7---1111111111------|
Db |0---0-0-0-----------0-----------|--------------------------------|

Eb |--------------------------------|--------------------------------|
Bb |--------------------------------|--------------------------------|
Gb |--------------------------------|--------------------------------|
Db |--------------------------------|--------------------------------|
Ab |--------------------------------|--------------------------------|
Db |3-3-3-3-3-3-3-3-3-3-3-3-3-3-3-3-|2-2-2-2-2-2-6-6-6-6-6-6-9-9-9-9-|

    PM---------|        PM-|         PM---------|        PM-|
Eb |--------------------------------|--------------------------------|
Bb |--------------------------------|--------------------------------|
Gb |------------8-\(7)------8-\(7)--|------------8-\(7)------6-------|
Db |------------8-\(7)------8-\(7)--|------------8-\(7)------6-------|
Ab |0---0-0-0---6-\(5)--0---6-\(5)--|0---0-0-0---6-\(5)--0---4-------|
Db |0---0-0-0-----------0-----------|0---0-0-0-----------0-----------|

    PM---------|        PM-|         PM----------|   PM-----|
Eb |--------------------------------|--------------------------------|
Bb |--------------------------------|--------------------------------|
Gb |------------8-\(7)------8-\(7)--|--------------------------------|
Db |------------8-\(7)------8-\(7)--|10--101010--9---1313131313------|
Ab |0---0-0-0---6-\(5)--0---6-\(5)--|8---8-8-8---7---1111111111------|
Db |0---0-0-0-----------0-----------|--------------------------------|

Eb |----7-7-7-7-7-7-7-7-7-7-7-7-7-7-|7---------------7---------------|
Bb |--------------------------------|--------------------------------|
Gb |--------------------------------|--------------------------------|
Db |--------------------------------|--------------------------------|
Ab |--------------------------------|--------------------------------|
Db |--------------------------------|--------------------------------|

    PM----------------------------------------------|
Eb |--------------------------------|--------------------------------|
Bb |--------------------------------|--------------------------------|
Gb |--------------------------------|----------------8-------8-------|
Db |--------------------------------|----------------8-------8-------|
Ab |--------------------------------|----------------6-------6-------|
Db |7-7-7-7-7-7-7-7-7-7-7-7-7-7-7-7-|7-7-7-7-7-7-7-7-----------------|

    PM----------------------------------------------|slow triplet
Eb |--------------------------------|--------------------------------|
Bb |--------------------------------|--------------------------------|
Gb |--------------------------------|--------------------------------|
Db |--------------------------------|----------------10----9----8----|
Ab |--------------------------------|----------------10----9----8----|
Db |7-7-7-7-7-7-7-7-7-7-7-7-7-7-7-7-|7-7-7-7-7-7-7-7-10----9----8----|

    PM-----------------------------|
Eb |--------------------------------|----8-------7-------6-------5---|
Bb |--------------------------------|--------------------------------|
Gb |--------------------------------|--------------------------------|
Db |--------------------------------|--------------------------------|
Ab |--------------------------------|--------------------------------|
Db |7-7-7-7-7-7-7-7-7-7-7-7-7-7-7-7-|7---------------7---------------|

    PM----------------------------------------------|
Eb |--------------------------------|--------------------------------|
Bb |--------------------------------|--------------------------------|
Gb |--------------------------------|----------------8-------8-------|
Db |--------------------------------|----------------8-------8-------|
Ab |--------------------------------|----------------6-------6-------|
Db |7-7-7-7-7-7-7-7-7-7-7-7-7-7-7-7-|7-7-7-7-7-7-7-7-----------------|

    PM----------------------------------------------|slow triplet
Eb |--------------------------------|--------------------------------|
Bb |--------------------------------|--------------------------------|
Gb |--------------------------------|--------------------------------|
Db |--------------------------------|----------------10----9----8----|
Ab |--------------------------------|----------------10----9----8----|
Db |7-7-7-7-7-7-7-7-7-7-7-7-7-7-7-7-|7-7-7-7-7-7-7-7-10----9----8----|

    PM----------------------------------------------|
Eb |--------------------------------|--------------------------------|
Bb |--------------------------------|--------------------------------|
Gb |--------------------------------|----------------10------10------|
Db |--------------------------------|----------------10------10------|
Ab |--------------------------------|----------------8-------8-------|
Db |7-7-7-7-7-7-7-7-7-7-7-7-7-7-7-7-|7-7-7-7-7-7-7-7-----------------|

    PM----------------------------------|            PM-|
Eb |--------------------------------|--------------------------------|
Bb |--------------------------------|--------------------------------|
Gb |--------------------------------|----10------9-------8-------7---|
Db |--------------------------------|----10------9-------8-------7---|
Ab |--------------------------------|----8-------7-------6-------5---|
Db |7-7-7-7-7-7-7-7-7-7-7-7-7-7-7-7-|7---------------7---------------|

    PM----------------------------------------------|
Eb |--------------------------------|--------------------------------|
Bb |--------------------------------|--------------------------------|
Gb |--------------------------------|----------------8-------8-------|
Db |--------------------------------|----------------8-------8-------|
Ab |--------------------------------|----------------6-------6-------|
Db |7-7-7-7-7-7-7-7-7-7-7-7-7-7-7-7-|7-7-7-7-7-7-7-7-----------------|

    PM----------------------------------------------|
Eb |--------------------------------|--------------------------------|
Bb |--------------------------------|--------------------------------|
Gb |--------------------------------|--------------------------------|
Db |--------------------------------|----------------9----10---11----|
Ab |--------------------------------|----------------9----10---11----|
Db |7-7-7-7-7-7-7-7-7-7-7-7-7-7-7-7-|7-7-7-7-7-7-7-7-9----10---11----|

    PM--------------------------------------------|
Eb |--------------------------------|--------------------------------|
Bb |--------------------------------|--------------------------------|
Gb |--------------------------------|----------------8---7---8-------|
Db |--------------------------------|----------------8---7---8-------|
Ab |0-------0---0---0-------0---0---|0-------0---0---6---5---6-------|
Db |0-------0---0---0-------0---0---|0-------0---0-------------------|

    PM--------------------------------------------|          vib-----|
Eb |--------------------------------|--------------------------------|
Bb |--------------------------------|--------------------------------|
Gb |--------------------------------|--------------------------------|
Db |--------------------------------|--------------------12----------|
Ab |0-------0---0---0-------0---0---|0-------0---0---10------11------|
Db |0-------0---0---0-------0---0---|0-------0---0-------------------|
[ Tab from: http://www.guitartabs.cc/tabs/s/send_more_paramedics/necromancer_tab.html ]
    PM--------------------------------------------|
Eb |--------------------------------|--------------------------------|
Bb |--------------------------------|--------------------------------|
Gb |--------------------------------|--------------------------------|
Db |--------------------------------|----------------2-------3-------|
Ab |0-------0---0---0-------0---0---|0-------0---0---2-------3-------|
Db |0-------0---0---0-------0---0---|0-------0---0---2-------3-------|

    PM-----------------------|                               vib-----|
Eb |--------------------------------|--------------------------------|
Bb |--------------------------------|--------------------------------|
Gb |----------------------------8---|7-------------------------------|
Db |--------------------------------|----8---7-----------------------|
Ab |0-------0---0---0-------0-------|------------8---6---------------|
Db |0-------0---0---0-------0-------|--------------------8---7-------|

    PM--------------------------------------------|
Eb |--------------------------------|--------------------------------|
Bb |--------------------------------|--------------------------------|
Gb |--------------------------------|----------------8---7---8-------|
Db |--------------------------------|----------------8---7---8-------|
Ab |0-------0---0---0-------0---0---|0-------0---0---6---5---6-------|
Db |0-------0---0---0-------0---0---|0-------0---0-------------------|

    PM--------------------------------------------|          vib-----|
Eb |--------------------------------|--------------------------------|
Bb |--------------------------------|--------------------------------|
Gb |--------------------------------|--------------------------------|
Db |--------------------------------|--------------------12----------|
Ab |0-------0---0---0-------0---0---|0-------0---0---10------11------|
Db |0-------0---0---0-------0---0---|0-------0---0-------------------|

    PM--------------------------------------------|
Eb |--------------------------------|--------------------------------|
Bb |--------------------------------|--------------------------------|
Gb |--------------------------------|--------------------------------|
Db |--------------------------------|----------------2-------3-------|
Ab |0-------0---0---0-------0---0---|0-------0---0---2-------3-------|
Db |0-------0---0---0-------0---0---|0-------0---0---2-------3-------|

    PM------------------------|                              vib-----|
Eb |--------------------------------|--------------------------------|
Bb |--------------------------------|--------------------------------|
Gb |----------------------------8---|7-------------------------------|
Db |--------------------------------|----8---7-----------------------|
Ab |0-------0---0---0-------0-------|------------8---6---------------|
Db |0-------0---0---0-------0-------|--------------------8---7-------|

                                                             PM-|
Eb |--------------------------------|--------------------------------|
Bb |--------------------------------|--------------------------------|
Gb |--------------------------------|--------------------------------|
Db |5-----------6-----------2-------|----3-----------8-------0---1---|
Ab |5-----------6-----------2-------|----3-----------8-------0---1---|
Db |5-----------6-----------2-------|----3-----------8-------0---1---|

    hold
Eb |--------------------------------|--------------------------------|
Bb |--------------------------------|--------------------------------|
Gb |--------------------------------|--------------------------------|
Db |(1)-----------------------------|(1)-----------------------------|
Ab |(1)-----------------------------|(1)-----------------------------|
Db |(1)-----------------------------|(1)-----------------------------|

    PM---------|        PM-|         PM---------|        PM-|
Eb |--------------------------------|--------------------------------|
Bb |--------------------------------|--------------------------------|
Gb |------------8-\(7)------8-\(7)--|------------8-\(7)------6-------|
Db |------------8-\(7)------8-\(7)--|------------8-\(7)------6-------|
Ab |0---0-0-0---6-\(5)--0---6-\(5)--|0---0-0-0---6-\(5)--0---4-------|
Db |0---0-0-0-----------0-----------|0---0-0-0-----------0-----------|

    PM---------|        PM-|         PM----------|   PM-----|
Eb |--------------------------------|--------------------------------|
Bb |--------------------------------|--------------------------------|
Gb |------------8-\(7)------8-\(7)--|--------------------------------|
Db |------------8-\(7)------8-\(7)--|10--101010--9---1313131313------|
Ab |0---0-0-0---6-\(5)--0---6-\(5)--|8---8-8-8---7---1111111111------|
Db |0---0-0-0-----------0-----------|--------------------------------|

    PM---------|        PM-|         PM---------|        PM-|
Eb |--------------------------------|--------------------------------|
Bb |--------------------------------|--------------------------------|
Gb |------------8-\(7)------8-\(7)--|------------8-\(7)------6-------|
Db |------------8-\(7)------8-\(7)--|------------8-\(7)------6-------|
Ab |0---0-0-0---6-\(5)--0---6-\(5)--|0---0-0-0---6-\(5)--0---4-------|
Db |0---0-0-0-----------0-----------|0---0-0-0-----------0-----------|

    PM---------|        PM-|         PM----------|   PM-----|
Eb |--------------------------------|--------------------------------|
Bb |--------------------------------|--------------------------------|
Gb |------------8-\(7)------8-\(7)--|--------------------------------|
Db |------------8-\(7)------8-\(7)--|10--101010--9---1313131313------|
Ab |0---0-0-0---6-\(5)--0---6-\(5)--|8---8-8-8---7---1111111111------|
Db |0---0-0-0-----------0-----------|--------------------------------|

Eb |--------------------------------|--------------------------------|
Bb |--------------------------------|--------------------------------|
Gb |--------------------------------|--------------------------------|
Db |--------------------------------|--------------------------------|
Ab |--------------------------------|--------------------------------|
Db |3-3-3-3-3-3-3-3-3-3-3-3-3-3-3-3-|2-2-2-2-2-2-6-6-6-6-6-6-9-9-9-9-|

    PM---------|        PM-|         PM---------|        PM-|
Eb |--------------------------------|--------------------------------|
Bb |--------------------------------|--------------------------------|
Gb |------------8-\(7)------8-\(7)--|------------8-\(7)------6-------|
Db |------------8-\(7)------8-\(7)--|------------8-\(7)------6-------|
Ab |0---0-0-0---6-\(5)--0---6-\(5)--|0---0-0-0---6-\(5)--0---4-------|
Db |0---0-0-0-----------0-----------|0---0-0-0-----------0-----------|

    PM---------|        PM-|         PM----------|   PM-----|
Eb |--------------------------------|--------------------------------|
Bb |--------------------------------|--------------------------------|
Gb |------------8-\(7)------8-\(7)--|--------------------------------|
Db |------------8-\(7)------8-\(7)--|10--101010--9---1313131313------|
Ab |0---0-0-0---6-\(5)--0---6-\(5)--|8---8-8-8---7---1111111111------|
Db |0---0-0-0-----------0-----------|--------------------------------|

Eb |--------------------------------|--------------------------------|
Bb |--------------------------------|--------------------------------|
Gb |--------------------------------|--------------------------------|
Db |--------------------------------|--------------------------------|
Ab |------------5-5-5-5-5-5-4-4-4-4-|------------3-3-3-3-3-3---------|
Db |3-3-3-3-3-3---------------------|2-2-2-2-2-2-------------6-6-6-6-|

    PM----------------------------------------------|
Eb |--------------------------------|--------------------------------|
Bb |--------------------------------|--------------------------------|
Gb |--------------------------------|----------------10------10------|
Db |--------------------------------|----------------10------10------|
Ab |--------------------------------|----------------8-------8-------|
Db |7-7-7-7-7-7-7-7-7-7-7-7-7-7-7-7-|7-7-7-7-7-7-7-7-----------------|

    PM----------------------------------|            PM-|
Eb |--------------------------------|--------------------------------|
Bb |--------------------------------|--------------------------------|
Gb |--------------------------------|----10------9-------8-------7---|
Db |--------------------------------|----10------9-------8-------7---|
Ab |--------------------------------|----8-------7-------6-------5---|
Db |7-7-7-7-7-7-7-7-7-7-7-7-7-7-7-7-|7---------------7---------------|

    PM----------------------------------------------|
Eb |--------------------------------|--------------------------------|
Bb |--------------------------------|--------------------------------|
Gb |--------------------------------|----------------8-------8-------|
Db |--------------------------------|----------------8-------8-------|
Ab |--------------------------------|----------------6-------6-------|
Db |7-7-7-7-7-7-7-7-7-7-7-7-7-7-7-7-|7-7-7-7-7-7-7-7-----------------|

    PM----------------------------------------------|slow triplet
Eb |--------------------------------|--------------------------------|
Bb |--------------------------------|--------------------------------|
Gb |--------------------------------|--------------------------------|
Db |--------------------------------|----------------10----9----8----|
Ab |--------------------------------|----------------10----9----8----|
Db |7-7-7-7-7-7-7-7-7-7-7-7-7-7-7-7-|7-7-7-7-7-7-7-7-10----9----8----|

    PM----------------------------------------------|
Eb |--------------------------------|--------------------------------|
Bb |--------------------------------|--------------------------------|
Gb |--------------------------------|----------------10------10------|
Db |--------------------------------|----------------10------10------|
Ab |--------------------------------|----------------8-------8-------|
Db |7-7-7-7-7-7-7-7-7-7-7-7-7-7-7-7-|7-7-7-7-7-7-7-7-----------------|

    PM----------------------------------|            PM-|
Eb |--------------------------------|--------------------------------|
Bb |--------------------------------|--------------------------------|
Gb |--------------------------------|----10------9-------8-------7---|
Db |--------------------------------|----10------9-------8-------7---|
Ab |--------------------------------|----8-------7-------6-------5---|
Db |7-7-7-7-7-7-7-7-7-7-7-7-7-7-7-7-|7---------------7---------------|

    PM----------------------------------------------|
Eb |--------------------------------|--------------------------------|
Bb |--------------------------------|--------------------------------|
Gb |--------------------------------|----------------8-------8-------|
Db |--------------------------------|----------------8-------8-------|
Ab |--------------------------------|----------------6-------6-------|
Db |7-7-7-7-7-7-7-7-7-7-7-7-7-7-7-7-|7-7-7-7-7-7-7-7-----------------|

    PM----------------------------------------------|slow triplet
Eb |--------------------------------|--------------------------------|
Bb |--------------------------------|--------------------------------|
Gb |--------------------------------|--------------------------------|
Db |--------------------------------|----------------9----10---11----|
Ab |--------------------------------|----------------9----10---11----|
Db |7-7-7-7-7-7-7-7-7-7-7-7-7-7-7-7-|7-7-7-7-7-7-7-7-9----10---11----|

    hold
Eb |--------------------------------|--------------------------------|
Bb |--------------------------------|--------------------------------|
Gb |--------------------------------|--------------------------------|
Db |--------------------------------|--------------------------------|
Ab |0-------------------------------|---------------/12------11------|
Db |0-------------------------------|---------------/12------11------|

    hold
Eb |--------------------------------|--------------------------------|
Bb |--------------------------------|--------------------------------|
Gb |--------------------------------|--------------------------------|
Db |--------------------------------|--------------------------------|
Ab |(11)----------------------------|(11)----------------------------|
Db |(11)----------------------------|(11)----------------------------|

    hold
Eb |--------------------------------|--------------------------------|
Bb |--------------------------------|--------------------------------|
Gb |--------------------------------|--------------------------------|
Db |--------------------------------|--------------------------------|
Ab |0-------------------------------|----------------/15-----11------|
Db |0-------------------------------|----------------/15-----11------|

    hold                             PM---|          PM---|
Eb |--------------------------------|--------------------------------|
Bb |--------------------------------|--------------------------------|
Gb |--------------------------------|--------------------------------|
Db |--------------------------------|--------------------------------|
Ab |(11)----------------------------|1---1-----------1---1-----------|
Db |(11)----------------------------|1---1-----------1---1-----------|

    hold
Eb |--------------------------------|--------------------------------|
Bb |--------------------------------|--------------------------------|
Gb |--------------------------------|--------------------------------|
Db |--------------------------------|--------------------------------|
Ab |0-------------------------------|---------------/12------11------|
Db |0-------------------------------|---------------/12------11------|

    hold
Eb |--------------------------------|--------------------------------|
Bb |--------------------------------|--------------------------------|
Gb |--------------------------------|--------------------------------|
Db |--------------------------------|--------------------------------|
Ab |(11)----------------------------|(11)----------------------------|
Db |(11)----------------------------|(11)----------------------------|

    hold
Eb |--------------------------------|--------------------------------|
Bb |--------------------------------|--------------------------------|
Gb |--------------------------------|--------------------------------|
Db |--------------------------------|--------------------------------|
Ab |0-------------------------------|----------------/15-----11------|
Db |0-------------------------------|----------------/15-----11------|

    hold
Eb |--------------------------------|--------------------------------|
Bb |--------------------------------|--------------------------------|
Gb |--------------------------------|--------------------------------|
Db |--------------------------------|--------------------------------|
Ab |(11)----------------------------|0---0-----------0---0-----------|
Db |(11)----------------------------|0---0-----------0---0-----------|
Comments