Send More Paramedics - Cranial Blowout Chords & Tabs

 

Cranial Blowout Chords & Tabs

Send More Paramedics Chords & Tabs

Version: 1 Type: Tab 0 ratings
1 star 2 stars 3 stars 4 stars 5 stars
comments

Cranial Blowout Tab

   
Band:  Send More Paramedics
Album: The Hallowed And The Heathen
Song:  Cranial Blowout
Copyright (c)  (In At The Deep End) (2004)
Version 1.0 - (06/10/05)

Transcribed By: Steve
Email:          stephen.elvidge1@ntlworld.com


.  - palm mute           /  - slide up to
\  - slide down to       ~  - vibrato
h  - hammer on           b  - Bend
p  - pull off            Suffixes for bend
t  - tap                 f  - full bend    h - half bend
ph - pinched harmonic    q  - quarter bend t - tap bend
*  - see comment         ^  - Hold bend    r release bend
x  - Stuccatto           ~  - vibrato bend
,  - slight palm mute    () - ghost note, sustained note
"  - tremolo note        <> - Trill

Tunning C# Ab Db Gb Bb Eb
 


 Main Riff

   PM            PM
E---------------------------------|
B---------------------------------|
G-----------------------1010------|
D-9---9-9\5-/10-9---9-9-8-8--1010-|
A-7-x-7-7\3-/8--7-x-7-7------8-8--|
E---x-------------x---------------| Rpt

 Verse
     PM            PM          PM           PM
E-----------------------------------------------------|
B-----------------------------------------------------|
G-----------------------------------------------------|
D-----------------------------------------------------|
A-2-2-x-2-2--2-2-2-x-2-2--2/3-3-x-3-3--3/6-6-x-6-6--6-|
E-2-2-x-2-2--2-2-2-x-2-2--2/3-3-x-3-3--3/6-6-x-6-6--6-| 

     PM            PM          PM           PM
E-----------------------------------------------------|
B-----------------------------------------------------|
G-----------------------------------------------------|
D----------------------------------------7-7-x-7-7--7-|
A-2-2-x-2-2--2-2-2-x-2-2--2/3-3-x-3-3--3-5-5-x-5-5--5-|
E-2-2-x-2-2--2-2-2-x-2-2--2/3-3-x-3-3--3--------------| 

     PM            PM          PM           PM
E-----------------------------------------------------|
B-----------------------------------------------------|
G-----------------------------------------------------|
D-----------------------------------------------------|
A-2-2-x-2-2--2-2-2-x-2-2--2/3-3-x-3-3--3/6-6-x-6-6--6-|
E-2-2-x-2-2--2-2-2-x-2-2--2/3-3-x-3-3--3/6-6-x-6-6--6-| 


     PM            PM      [--------------PM---------------]
E-----------------------------------------------------------|
B-----------------------------------------------------------|
G-----------------------------------------------------------|
D---------------------------7-7-7-7-7-7-7-7-7-7-7-7-7-7-7-7-|
A-2-2-x-2-2--2/6-6-x-6-6--6-5-5-5-5-5-5-5-5-5-5-5-5-5-5-5-5-|
E-2-2-x-2-2--2/6-6-x-6-6--6---------------------------------|

 Chorus 

   PM             PM
E--------------------------------|
B--------------------------------|
G--------------------------------|
D-9---9-9\5-/10-13---13-13\5-/10-|
A-7-x-7-7\3-/8--11-x-11-11\3-/8--|
E---x--------------x-------------| Rpt
[ Tab from: http://www.guitartabs.cc/tabs/s/send_more_paramedics/cranial_blowout_tab.html ]
 Guitar solo
     h        h           h     h        h        h  
E----------------------------------------------------------------|
B-12-13p12\11-12-13p12-11-12p11-12p11-12-13p12\11-12-12-13p12\11-|
G----------------------------------------------------------------|
D----------------------------------------------------------------|
A----------------------------------------------------------------|
E----------------------------------------------------------------|
     h     h     h     h      h     h     h        h~~~~~~~~~
E------------------------------------------------------------|
B------------------------------------------------------------|
G-11-12p11-12p11-12p11-12p-11-12p11-12p11-12p11p10-11--------|
D------------------------------------------------------------|
A------------------------------------------------------------|
E------------------------------------------------------------|
                 ~~~~~~
E----------------------|
B----10----------------|
G-12----12-11-12-9-----|
D----------------------|
A----------------------|
E----------------------|

 Backing for guitar solo
     PM            PM          PM           PM
E-----------------------------------------------------|
B-----------------------------------------------------|
G-----------------------------------------------------|
D----------------------------------------7-7-x-7-7--7-|
A-2-2-x-2-2--2-2-2-x-2-2--2/3-3-x-3-3--3-5-5-x-5-5--5-|
E-2-2-x-2-2--2-2-2-x-2-2--2/3-3-x-3-3--3--------------|

 Rpt Verse

 Last time

     PM            PM      [------------PM-------------] 
E-----------------------------------------------------------|
B-----------------------------------------------------------|
G-----------------------------------------------------------|
D-------------------------------------------7-7-7-7-7-7-7-7-|
A-2-2-x-2-2--2-2-2-x-2-2--2/3-3-3-3-3-3-3-3-5-5-5-5-5-5-5-5-|
E-2-2-x-2-2--2-2-2-x-2-2--2/3-3-3-3-3-3-3-3-----------------|

     PM      [--------PM-------]   PM      [--PM-]  [PM]
E----------------------------------------------------------|
B----------------------------------------------------------|
G----------------------------------------------------------|
D----------------------------------------------------------|
A-6-5p--3-5p3p--2-2-2-2-2-2-2-2/6-5p0-3-5p3p0-2-2-2--2-2-2-|
E-6-5p0-3-5p3p0-2-2-2-2-2-2-2-2/6-5p0-3-5p3p0-2-2-2--2-2-2-| Rpt

     PM      [--------PM-------]   PM      [--PM-]  [PM]
E----------------------------------------------------------|
B----------------------------------------------------------|
G----------------------------------------------------------|
D----------------------------------------------------------|
A-6-5p--3-5p3p--2-2-2-2-2-2-2-2/6-5p0-3-5p3p0-2-2-2--2-2-2-|
E-6-5p0-3-5p3p0-2-2-2-2-2-2-2-2/6-5p0-3-5p3p0-2-2-2--2-2-2-|

     PM      [--------PM-------]   PM      PM
E----------------------------------------------------------|
B----------------------------------------------------------|
G----------------------------------------------------------|
D----------------------------------------------------------|
A-6-5p--3-5p3p--2-2-2-2-2-2-2-2/6-5p0-3-5p3p0-6-----(6)----|
E-6-5p0-3-5p3p0-2-2-2-2-2-2-2-2/6-5p0-3-5p3p0-6-----(6)----|

 Additional Guitar

  Guitar 1
              ~~~            ~~~            ~~~             ~~~~~
E[-----------------------------------------------------------------|
B[-----------------------------------------------------------------|
G[-----------------------------------------------------------------|
D[-6-5-3-5-3p0-2--6-5-3-5-3p0-2--6-5-3-5-3p0-2--6-5-3-5-3p0-6--(6)-|
A[-----------------------------------------------------------------|
E[-----------------------------------------------------------------|
 [Guitar 2
 [             ~~~            ~~~            ~~~             ~~~~~~
E[-----------------------------------------------------------------|
B[-----------------------------------------------------------------|
G[-8-7-5-7-5---4--8-7-5-7-5---4--8-7-5-7-5---4--8-7-5-7-5---8--(8)-|
D[-----------7--------------7--------------7-----------------------|
A[-----------------------------------------------------------------|
E[-----------------------------------------------------------------|

 Rpt Chorus 2 X

E-------------------------------------------------------------------|
B-------------------------------------------------------------------|
G-------------------------------------------------------------------|
D-2---------------------------(2)-----------------------------------|
A-2---------------------------(2)-----------------------------------|
E-2---------------------------(2)-----------------------------------|


END

Comments