Semisonic - Secret Smile Chords & Tabs

 

Secret Smile Chords & Tabs

Semisonic Chords & Tabs

Version: 3 Type: Tab 0 ratings
1 star 2 stars 3 stars 4 stars 5 stars
comments

Secret Smile Tab

   
The Chords put forward by people are WRONG!!! The "Chords" version is so
inaccurate i wonder if this guy listened tho the wrong song. If it's you
PLEASE in future TRY TO BE SLIGHTLY MORE ACCURATE!!
all the chords put forward in the other version are in the correct order
but they are slightly incorrect note wise !!! Unlucky pal... it was a damn site better than
the other one!This is 100%  accurate I KNOW THIS 4 A FACT AS I HAVE
THE TAB BOOK and I SAW THEM LIVE!!!!

1) they use a capo on the 1st fret.
2) chords......

	Am,	D2,	G6,	F7, 	C
	o 	o  	3  	o   	o
        1 	3  	3  	1   	1
        2 	2  	o  	2   	o
	2 	o  	o  	3   	2
	o 	o  	2 	3   	3
	x 	o 	3 	1	x


Tab Riffs:

Start:
..F7	  Am	   D2		  G6		F7
--------|--------|--------------|--------|-----------------|
--------|--------|--------------|--------|-----------------|
--------|--------|--------------|--------|-----------------|
-------6|-8----8*|-8---8*------6|--------|------------6-8--| etc....
---6-8--|--------|---------6-8--|-6---6--|--6-----6-8------|
--------|--------|--------------|--|-----|-----------------|


(*) beside a note means palm mute.
[ Tab from: http://www.guitartabs.cc/tabs/s/semisonic/secret_smile_tab_ver_3.html ]
Intro to verse 2:
Am		D2	G6	   F7
-----------|--------|------------|----------------------------|
-----------|--------|------------|----------------------------|
-----------|--------|8~-~8-5---6-|6-5-------------------------|
-----6-8^--|------6-|------------|-----7----------------------|
-6-8-------|--6-8---|------------|----------------------------|
-----------|--------|------------|----------------------------|


^ = a full tone bend up.
~ = bend half a tone.
3~-~3 = bend and return to note.


other riff:
...F7	Am		D2		G6	F7
-------|-------------|------------|------------|----------------|
-------|-------------|------------|------------|----------------|
-------|-6-----------|6-----------|6-----------|-6--6---8-------| etc...
----6-8|--8-6-8---6-8|--8-6-8--6-8|--8-6-8--6-8|-----8----8-6-8-|
-6-8---|-------------|------------|------------|----------------|
-------|-------------|------------|------------|----------------|

This is all i can remember accurately BUT as the half decent guitarist's will
know there areTWO ...YES 2 guitar parts.......there is an accoustic guitar
part too. If you have any of the "all about chemistry" tab please contact me @

zeb@stereophonics.co.uk

Keep rockin ppl!
zeb
Comments