Semisonic - Closing Time Chords & Tabs

 

Closing Time Chords & Tabs

Semisonic Chords & Tabs

Version: 7 Type: Tab 0 ratings
1 star 2 stars 3 stars 4 stars 5 stars
comments

Closing Time Tab

   
---------------------------------------------------------------------------
			     Closing Time - Semisonic
---------------------------------------------------------------------------
Tabbed by: Fallacy
Email: Okibi_Akuma@hotmail.com

Tuning: E-B-G-D-A-D

Intro:
*Guitar 1 (Semi-Clean Tone) Rhy. Fig. 1
e|-------------------------------------------------------|
B|-------------------------------------------------------|
G|------------4-----------------------------7------------|
D|--5----5----5----5----5----7----7----7----7----7----7--|
A|--5----5----5----5----5----5----5----5----5----5----5--|
E|--3----3----3----3----3----5----5----5----5----5----5--|
   
                                                  End Rhy. Fig. 1
e|--------------------------------------------------------------|
B|--------------------------------------------------------------|
G|-------------------------------------------------5------------|
D|--7----7----7-----7-----7----7----5----5----5----5----5----5--|
A|--7----7----7-----7-----7----7----3----3----3----3----3----3--|
E|--5----5----5-----5-----5----5----3----3----3----3----3----3--|
*Play 3 Times*


*Guitar 2 (Hold Throughout) Riff A
e|--7-----------7-----------10-----------7-----------|
B|-------8-----------8-------------8-----------8-----|
G|---------------------------------------------------|
D|---------------------------------------------------|
A|---------------------------------------------------|
E|---------------------------------------------------|


e|--7-----------7-----------8-----------7-----------|
B|-------8------------8-----------8-----------8-----|
G|--------------------------------------------------|
D|--------------------------------------------------|
A|--------------------------------------------------|
E|--------------------------------------------------|
*Play Twice

Verse 1 & 2:
*Guitar 1: Play Rhy. Fig. 1 8 Times
*Guitar 2: Play Riff A 8 Times

Chorus:
G5: e|--3--|
    B|--3--|
    G|--0--|
    D|--0--|
    A|--X--|
    E|--3--|

D: e|--2--|
   B|--3--|
   G|--2--|
   D|--0--|
   A|--0--|
   E|--X--|

Am: e|-----|
    B|--1--|
    G|--2--|
    D|--2--|
    A|--0--|
    E|--X--|

c: e|--0--|
   B|--1--|
   G|--0--|
   D|--2--|
   A|--3--|
   E|--X--|
*Repeat these four chords 2 times.

D: e|--2--|
   B|--3--|
   G|--2--|
   D|--0--|
   A|--0--|
   E|--X--|

Am: e|-----|
    B|--1--|
    G|--2--|
    D|--2--|
    A|--0--|
    E|--X--|

c: e|--0--|
   B|--1--|
   G|--0--|
   D|--2--|
   A|--3--|
   E|--X--|

Am: e|-----|
    B|--1--|
    G|--2--|
    D|--2--|
    A|--0--|
    E|--X--|

c: e|--0--|
   B|--1--|
   G|--0--|
   D|--2--|
   A|--3--|
   E|--X--|

Bflat5: e|--0--|
        B|--0--|
        G|--x--|
        D|--8--|
        A|--8--|
        E|--6--|

Aflat5: e|--0--|
        B|--0--|
        G|--X--|
        D|--6--|
        A|--6--|
        E|--4--|

Eflat5: e|--0--|
        B|--0--|
        G|--8--|
        D|--8--|
        A|--6--|
        E|--X--|

Cm: e|--0--|
    B|--4--|
    G|--5--|
    D|--5--|
    A|--3--|
    E|--X--|

Bflat5: e|--0--|
        B|--0--|
        G|--x--|
        D|--8--|
        A|--8--|
        E|--6--|


Aflat5: e|--0--|
        B|--0--|
        G|--X--|
        D|--6--|
        A|--6--|
        E|--4--|


*Play the Verse again, 8 times
*Play Chorus


Interlude (Rest for keyboard solo.  Not tabbing it)
Guitar 2
e|--0----0----0----X----X-------------------|
B|--1----1----1----x----x-------------------|
G|--2----2----2----x----x---5----7----9/12--|
D|--2----2----2----x----x---x----x----x-----|
A|--0----0----0----x----x---3----5----7/10--|
E|------------------------------------------|

[ Tab from: http://www.guitartabs.cc/tabs/s/semisonic/closing_time_tab_ver_7.html ]
Interlude 2
Rhy. Fig. 2
e|-------2----2---2---2---2----2----2---2---|
B|-------3----3---3---3---3----3----3---3---|
G|--(12)\0----0---0---0---3----3----3---3---|
D|-------0----0---0---0---0----0----0---0---|
A|--(10)\X----x---x---x---------------------|
E|-------3----3---3---3---------------------|

                                     ~~~~~
e|--0------0----X----X-------------------|
B|--1------1----X----X---5----7----8/12--|
G|--2------2----X----X---X----X----X-----|
D|--2------2----X----X---2----4----5/9---|
A|--0------0----X----X-------------------|
E|---------------------------------------|

~~~~~~~~~
e|-------3----3---3---3---2----2----2---2--|
B|--(12)\3----3---3---3---3----3----3---3--|
G|-------0----0---0---0---3----3----3---3--|
D|--(09)\0----0---0---0---0----0----0---0--|
A|-------X----X---X---X--------------------|
E|-------3----3---3---3--------------------|

                           End Rhy. Fig. 2
                                     ~~~~~
e|--0------0----X----X-------------------|
B|--1------1----X----X-------------------|
G|--2------2----X----X---5----7----9/12--|
D|--2------2----X----X---X----X----X-----|
A|--0------0----X----X---3----5----7/10--|
E|---------------------------------------|

~~~~~~~
e|-------2----2---2---2---2----2----2---2---|
B|-------3----3---3---3---3----3----3---3---|
G|--(12)\0----0---0---0---3----3----3---3---|
D|-------0----0---0---0---0----0----0---0---|
A|--(10)\X----x---x---x---------------------|
E|-------3----3---3---3---------------------|

                                     ~~~~~
e|--0------0----X----X-------------------|
B|--1------1----X----X---5----7----8/12--|
G|--2------2----X----X---X----X----X-----|
D|--2------2----X----X---2----4----5/9---|
A|--0------0----X----X-------------------|
E|---------------------------------------|

~~~~~~~~~
e|-------3----3---3---3---2----2----2---2--|
B|--(12)\3----3---3---3---3----3----3---3--|
G|-------0----0---0---0---3----3----3---3--|
D|--(09)\0----0---0---0---0----0----0---0--|
A|-------X----X---X---X--------------------|
E|-------3----3---3---3--------------------|


e|--0------0----X----X---------------------|
B|--1------1----X----X---------------------|
G|--2------2----X----X---5----7----9-------|
D|--2------2----X----X---X----X----X-------|
A|--0------0----X----X---3----5----7----0--|
E|-----------------------------------------|


Verse 3:
*Guitar 1: Rhy. Fig. 1 once, then play the first measure.

*Play Chorus

Riff B
e|--7---------7---------10---------7-------|
B|-------8---------8----------8---------8--|
G|-----------------------------------------|
D|-----------------------------------------|
A|-----------------------------------------|
E|-----------------------------------------|

e|--7---------7------------------------7--|
B|-------8---------8---------7----8-------|
G|----------------------9-----------------|
D|----------------------------------------|
A|----------------------------------------|
E|----------------------------------------|

e|--7---------7---------10---------7-------|
B|-------8---------8----------8---------8--|
G|-----------------------------------------|
D|-----------------------------------------|
A|-----------------------------------------|
E|-----------------------------------------|

                                  End Riff B
e|--7---------7----------------------------|
B|-------8---------8--------------------8--|
G|----------------------------7----9-------|
D|----------------------10-----------------|
A|-----------------------------------------|
E|-----------------------------------------|


Interlude 3
*Guitar 4: Rhy. Fig. 2
*Guitar 2: Play Riff


Outro:
*Guitar 1: Play Rhy. Fig. 1 2 times
*Guitar 2: Riff A 2 times

End note:
*Guitar 1
e|--7--|
B|--x--|
G|--4--|
D|--5--|
A|--5--|
E|--3--|
Comments