Semisonic - Closing Time Chords & Tabs

 

Closing Time Chords & Tabs

Semisonic Chords & Tabs

Version: 2 Type: Tab 0 ratings
1 star 2 stars 3 stars 4 stars 5 stars
comments

Closing Time Tab

   
#----------------------------------PLEASE NOTE--------------------------------#
#This file is the author's own work and represents their interpretation of the#
#song. You may only use this file for private study, scholarship, or research.#
#-----------------------------------------------------------------------------#

Date: Thu, 10 Jan 1980 13:38:01 -0500
From: Jason 
Subject: s/semisonic/closing_time.tab



Song: "Closing Time"
Group: "Semisonic"
Album: "Feeling Strangely Fine"

Transcribed by Jason Cook (jbcook@awod.com)

Chords: G - D - Am - C

Piano part played in the background (for guitar):
e------------------------------------------
B----12----12----15----12------------------
G-------12----12----12----12---------------
D------------------------------------------
A------------------------------------------
E------------------------------------------

Piano solo (for guitar):
e--------------10-11-10--------------------
B---11---11-13----------13-11----11--------
G-----------------------------12-----------
D------------------------------------------
A------------------------------------------
E------------------------------------------
[ Tab from: http://www.guitartabs.cc/tabs/s/semisonic/closing_time_tab_ver_2.html ]
e---------10-11-10-------------------------
B---11-13----------13-11-------------------
G------------------------12----------------
D------------------------------------------
A------------------------------------------
E------------------------------------------

Lyrics:

Closing time - time for you to go out, go out into the world.
Closing time - turn the lights up over every boy and every girl.
Closing time - one last call for alcohol, so finish your whiskey or
beer.
Closing time - you don't have to go home but you can't stay here.

I know who I want to take me home.
I know who I want to take me home.
I know who I want to take me home.
Take me home...

Closing time - time for you to go back to the places you will be from.
Closing time - this room won't be open 'til your brothers or you sisters
come.
So gather up your jackets, and move it to the exits - I hope you have
found a
friend.
Closing time - every new beginning comes from some other beginning's
end.

Yeah, I know who I want to take me home.
I know who I want to take me home.
I know who I want to take me home.
Take me home...

Closing time - time for you to go back to the places you will be from...

I know who I want to take me home.
I know who I want to take me home.
I know who I want to take me home.
Take me home...

Closing time - every new beginning comes from some other beginning's
end...

-----------------------------------------------------------------------------

I want to give props to me friends Matt and Brent, 2 awsome guitar
players
that have helped me alot.  Thanks guys.

Questions/Comments: jbcook@awod.com
-----------------------------------------------------------------------------

Comments