Semaphia - Arppegio's Of Truth Chords & Tabs

 

Arppegio's Of Truth Chords & Tabs

Semaphia Chords & Tabs

Version: 1 Type: Tab 0 ratings
1 star 2 stars 3 stars 4 stars 5 stars
comments

Arppegio's Of Truth Tab

   
Arppegio's Of Truth (Capo 2nd)

Verse 1

    Aadd9                                 F#m
e|-----------5-----------------5-------|-----------2-----------------2-------|
B|--------0-----0-----------0-----0----|--------2-----2-----------2-----2----|
G|-----6-----------6-----6-----------6-|-----2-----------2-----2-----------2-|
D|-------------------------------------|-------------------------------------|
A|--0-----------------0----------------|-------------------------------------|
E|-------------------------------------|--2-----------------2----------------|

    Aadd9                                 F#m                 
e|-----------5--------7--------5-------|-----------2--------2h4p2--------2-------|
B|--------0-----0--------0--------0----|--------2-----2------------2--------2----|
G|-----6-----------6--------6--------6-|-----2-----------2------------2--------2-|
D|-------------------------------------|-----------------------------------------|
A|--0----------------------------------|-----------------------------------------|
E|-------------------------------------|--2--------------------------------------|

    Aadd9                                 F#m                
e|-----------5--------7--------9-------|-----------2--------2h4p2--------2-------|
B|--------0-----0--------0--------0----|--------2-----2------------2--------2----|
G|-----6-----------6--------6--------6-|-----2-----------2------------2--------2-|
D|-------------------------------------|-----------------------------------------|
A|--0----------------------------------|-----------------------------------------|
E|-------------------------------------|--2--------------------------------------|

                                        _________________________________________________________ 
    Bmadd9                             |1|Dm                                                     |  
e|-----------7--------9--------7-------|--------------10----------10h12p10----------10-----------|
B|--------0-----0--------0--------0----|----------10------10----------------10----------10-----*-|
G|-----7-----------7--------7--------7-|------10--------------10----------------10----------10---|
D|-------------------------------------|---------------------------------------------------------|
A|--0----------------------------------|-------------------------------------------------------*-|
E|-------------------------------------|--10-----------------------------------------------------|

  _____________________________________ 
 |2|Bmadd9                                Dm
e|-----------7--------9--------7-------|--------------10----------10h12p10----------10---------|
B|--------0-----0--------0--------0----|----------10------10----------------10----------10-----|
G|-----7-----------7--------7--------7-|------10--------------10----------------10----------10-|
D|-------------------------------------|-------------------------------------------------------|
A|--0----------------------------------|-------------------------------------------------------|
E|-------------------------------------|--10---------------------------------------------------|

Bridge (Fade Out)

    Dm
e|--10----------10----------10----------10-----------|
B|------10----------10----------10----------10-----*-|
G|----------10----------10----------10----------10---|
D|---------------------------------------------------|
A|-------------------------------------------------*-|
E|---------------------------------------------------|

Chorus (Fade In)

    D/F#                                  Gm
e|--2--------2--------2--------2-------|--3--------3--------5--------3-------|
B|-----3--------3--------3--------3----|-----3--------3--------3--------3----|
G|--------2--------2--------2--------2-|--------3--------3--------3--------3-|
D|--0----------------------------------|--0----------------------------------|
A|-------------------------------------|-------------------------------------|
E|--2----------------------------------|--3----------------------------------|

    D/F#                                  Gm
e|--2--------2--------0--------2-------|--3--------5--------3--------5-------|
B|-----3--------3--------3--------3----|-----3--------3--------3--------3----|
G|--------2--------2--------2--------2-|--------3--------3--------3--------3-|
D|--0----------------------------------|--0----------------------------------|
A|-------------------------------------|-------------------------------------|
E|--2----------------------------------|--3----------------------------------|
[ Tab from: http://www.guitartabs.cc/tabs/s/semaphia/arppegios_of_truth_tab.html ]
    D/F#                                  Gm
e|--2--------2--------2--------2-------|--3--------3--------5--------3-------|
B|-----3--------3--------3--------3----|-----3--------3--------3--------3----|
G|--------2--------2--------2--------2-|--------3--------3--------3--------3-|
D|--0----------------------------------|--0----------------------------------|
A|-------------------------------------|-------------------------------------|
E|--2----------------------------------|--3----------------------------------|

   D/F#                                  Gm
e|--2--------2--------0--------2-------|--3--------5--------3--------5-------|
B|-----3--------3--------3--------3----|-----3--------3--------3--------3----|
G|--------2--------2--------2--------2-|--------3--------3--------3--------3-|
D|--0----------------------------------|--0----------------------------------|
A|-------------------------------------|-------------------------------------|
E|--2----------------------------------|--3----------------------------------|

Bridge

    Gm
e|--3--------3--------3--------3---------|
B|-----3--------3--------3--------3----*-|
G|--------3--------3--------3--------3---|
D|---------------------------------------|
A|-------------------------------------*-|
E|---------------------------------------|

Verse 2

    Aadd9                                 F#m
e|-----------5-----------------5-------|-----------2-----------------2-------|
B|--------0-----0-----------0-----0----|--------2-----2-----------2-----2----|
G|-----6-----------6-----6-----------6-|-----2-----------2-----2-----------2-|
D|-------------------------------------|-------------------------------------|
A|--0-----------------0----------------|-------------------------------------|
E|-------------------------------------|--2-----------------2----------------|

    Aadd9                                 F#m                 
e|-----------5--------7--------5-------|-----------2--------2h4p2--------2-------|
B|--------0-----0--------0--------0----|--------2-----2------------2--------2----|
G|-----6-----------6--------6--------6-|-----2-----------2------------2--------2-|
D|-------------------------------------|-----------------------------------------|
A|--0----------------------------------|-----------------------------------------|
E|-------------------------------------|--2--------------------------------------|

    Aadd9                                 F#m                
e|-----------5--------7--------9-------|-----------2--------2h4p2--------2-------|
B|--------0-----0--------0--------0----|--------2-----2------------2--------2----|
G|-----6-----------6--------6--------6-|-----2-----------2------------2--------2-|
D|-------------------------------------|-----------------------------------------|
A|--0----------------------------------|-----------------------------------------|
E|-------------------------------------|--2--------------------------------------|

                                        _________________________________________________________ 
    Bmadd9                             |1|Dm                                                     |  
e|-----------7--------9--------7-------|--------------10----------10h12p10----------10-----------|
B|--------0-----0--------0--------0----|----------10------10----------------10----------10-----*-|
G|-----7-----------7--------7--------7-|------10--------------10----------------10----------10---|
D|-------------------------------------|---------------------------------------------------------|
A|--0----------------------------------|-------------------------------------------------------*-|
E|-------------------------------------|--10-----------------------------------------------------|

  _____________________________________ 
 |2|Bmadd9                                Dm
e|-----------7--------9--------7-------|--------------10----------10h12p10----------10---------|
B|--------0-----0--------0--------0----|----------10------10----------------10----------10-----|
G|-----7-----------7--------7--------7-|------10--------------10----------------10----------10-|
D|-------------------------------------|-------------------------------------------------------|
A|--0----------------------------------|-------------------------------------------------------|
E|-------------------------------------|--10---------------------------------------------------|

Outro (Slow Down On *, And Let Notes Ring As Long As Possible)

    Dm          *                                     Aadd9
e|--10----------10----------10----------10---------|--5--|
B|------10----------10----------10----------10-----|--0--|
G|----------10----------10----------10----------10-|--6--|
D|-------------------------------------------------|--7--|
A|-------------------------------------------------|--0--|
E|-------------------------------------------------|-----|
Comments