Selena Gomez - Off The Chain Chords & Tabs

 

Selena Gomez Chords & Tabs

Version: 2 Type: Tab 0 ratings
1 star 2 stars 3 stars 4 stars 5 stars
comments

Off The Chain Tab

LISTEN TO LIVE EVENTS FOR THE TIMING AND VARIATION OF THE NOTES
BASED ON THIS EVENT - http://www.youtube.com/watch?v=QlkCj9VI7R8
Effects - Distortion
youtube.com/AliveInTheAfterworld
100% Correct!

Intro: (Running, I Didn't See It Coming...)
E|------------------------------------------------------------------|
B|------------------------------------------------------------------|
G|------------------------------------------------------------------|
D|-4/6~--6/8~--8/9~--9/11-11/13-13\4--4/6~--6/8~--8/9~-9-9-9-9-9-9--|
A|------------------------------------------------------------------|
E|------------------------------------------------------------------|

Verse: (A Thousand Church Bells Ringing...)
E|----------------------|
B|----------------------|
G|----------------------|
D|----------4-----------|
A|-2--4--6--2--2--4--6--|
E|-0--2--4-----0--2--4--|
PALM MUTE And Play Each Chord 8 Times And The Last Chord 16 Times But On The Last Chord 
Palm Mute 12 Times And 4 Times NOT Palm Muted To Blast Into The Chorus.
[ Tab from: http://www.guitartabs.cc/tabs/s/selena_gomez/off_the_chain_tab_ver_2.html ]
Chorus: (The Chemistry Is Crazy...)
E|----------------------|
B|----------------------|
G|----------4--------6--|
D|----------2--------4--|
A|-2--4--6-----2--4-----|
E|-0--2--4-----0--2-----|
NOT PALM MUTED, Last Chord Is Always Played 16 Times!

Verse 2: (Coming, Just Keep The Magic Coming...)
E|----------------------|
B|----------------------|
G|----------------------|
D|----------4--------6--|
A|-2--4--6--2--2--4--4--|
E|-0--2--4-----0--2-----|
PALM MUTE And Play Each Chord 8 Times And The Last Chord 16 Times But On The Last Chord 
Palm Mute 8 Times And 8 Times NOT Palm Muted To Blast Into The Intro.

Play Intro Again Then The Chorus

Bridge: (I'm Not The Type Who Gets Crazy For Someone...)
E|--------------------------------------|
B|--------------------------------------|
G|--------------------------------------|
D|-------------------4-4--4-4-----------|
A|-6-6--6-6-6-6--6-6-2-2--2-2-4-4--4-4--|
E|-4-4--4-4-4-4--4-4----------2-2--2-2--|
Repeat Twice

Play Verse 2 Once, Then Play The Chorus Until The End Of The Song!
Comments