Seger Bob - Hollywood Nights Chords & Tabs

 

Hollywood Nights Chords & Tabs

Seger Bob Chords & Tabs

Version: 1 Type: Bass Tab 0 ratings
1 star 2 stars 3 stars 4 stars 5 stars
comments

Hollywood Nights Bass Tab

BOB SEGER - "Hollywood Nights" - Bass Tab

Common Time(4/4)
Standard Tuning(EADG)

MAIN RIFF:
               (x7)
|-------------------|-----------6---7-|
|*-----------------*|-----------------|
|*---7---7---7---7-*|---7---7-4---5---|
|--0---0---0---0----|-0---0-----------|
   1 & 2 & 3 & 4 &    1 & 2 & 3 & 4 &

1ST CHORUS END RIFF:
|-----------------|-----------------|-----------------|
|-----------------|-----------------|-----------------|
|-5-5-5-5-5-5-5-5-|-5-5-5-5-5-5-5-5-|-----------------|
|-----------------|-----------------|-5-5-5-5-5-5-5-5-|
  1 & 2 & 3 & 4 &   1 & 2 & 3 & 4 &   1 & 2 & 3 & 4 &
[ Tab from: http://www.guitartabs.cc/tabs/s/seger_bob/hollywood_nights_btab.html ]
|-----------------|
|-----------------|
|-----------------|
|-5-5-5-5-5-5-5-5-|
  1 & 2 & 3 & 4 &

DIFFERENT BIT NEAR END:
|-----------------|-----6-6-8-8-9-9-|----------|------------|
|---------6-6-7-7-|-9-9-------------|*-.-.-.-.-|-.-.-.-----*|
|---7-9-9---------|-----------------|*-7-7-7-7-|-7-7-7---7-*|
|-0---------------|-----------------|----------|-------0----|
  1 & 2 & 3 & 4 &   1 & 2 & 3 & 4 &    1 2 3 4   1 2 3 4 &

|---9---7---6---4-|---4---5---6---7-|
|-----------------|-----------------|
|-7---5---4---2---|-2---3---4---5---|
|-----------------|-----------------|
  1 & 2 & 3 & 4 &   1 & 2 & 3 & 4 &

By: Johari Taylor
E-mail: viking@powerup.com.au

Comments