Seether - Tied My Hands Chords & Tabs

 

Tied My Hands Chords & Tabs

Seether Chords & Tabs

Version: 2 Type: Tab 0 ratings
1 star 2 stars 3 stars 4 stars 5 stars
comments

Tied My Hands Tab

   
Band Name: Seether
Song Name: Tied My Hands
Tabbed by: MetallicaRoks
Email: Metallica___666@hotmail.com

Tuning:EADGBE

       Guitar #1(Echo Effect used)

e|------------------------------------------------------------------|-------
B|------------------------------------------------------------------|-------
G|---------------5----1----5----1----------------5----1----5----1---|-------
D|-----3----6--------------------------3----6-----------------------|---3---
A|------------------------------------------------------------------|-------
E|------------------------------------------------------------------|-------

       Guitar #2
e|--------------------------------------------------------------------------
B|--------------------------------------------------------------------------
G|--------------------------------------------------------------------------
D|-----3----------------------------------------------------------------6---
A|-----3----------------------------------------------------------------6---
E|-----1----------------------------------------------------------------4---
[ Tab from: http://www.guitartabs.cc/tabs/s/seether/tied_my_hands_tab_ver_2.html ]
       Guitar #1     
e|------------------------------------------------------------|-------------
B|------------------------------------------------------------|---Repeat----
G|----------5----1----5----1----------------5----1----5----1--|--Throughout-
D|----6--------------------------3----6-----------------------|----Song-----
A|------------------------------------------------------------|---Except----
E|------------------------------------------------------------|---Chorus----

    
        END CHORUS (Played With beginning guitar) 
e|----------------------------------------|---------------------------------
B|----------------------------4-----------|---------------------------------
G|----------------------------6----x16----|-----REPEAT----------------------
D|---3------------------------6-----------|-----x7--------------------------
A|---3---x16------------------4-----------|---------------------------------
E|---1------------------------------------|---------------------------------

Verse #1

Can you remember when we used to cry
but never in distress
But can you picture when we used to pride
ourselves on neatness

Chorus

Cause I can understand what you meant to me
Made me wild, then you tied my hands

Verse #2

Can you remeber when we used to laugh
at those mistakes we made
But can you piucture them how we used to drive
but never reach the end

Chorus

Since you went away made me find
i had nothin to sell

Chorus x2

Tied my hands
Tied my hands
Tied my hands
Tied my hands     
 

| /  slide up
| \  slide down
| h  hammer-on
| p  pull-off
| ~  vibrato
| +  harmonic
| x  Mute note
============================================================================
Tell me about any changes.......Great Seether song
Comments