Seether - Take Me Away Chords & Tabs

 

Take Me Away Chords & Tabs

Seether Chords & Tabs

Version: 2 Type: Tab 0 ratings
1 star 2 stars 3 stars 4 stars 5 stars
comments

Take Me Away Tab

Intro/Verse Main Riff
Eb|-----------------------------------------------------|
Bb|-----------------------------------------------------|
Gb|-----------------------------------------------------|
Db|--2-/-4---4----7----7--7--7--------------------------|
Ab|--2-/-4---4----7----7--7--7--------------------------|
Eb|--0-/-2---2----5----5--5--5--------------------------|
     "As beautiful as fire, against the evening sky..."

Chorus
Eb|---------------------------------------------------------------------------|
Bb|---------------------------------------------------------------------------|
Gb|--6--6--------------------6--6---------------------------------------------|
Db|--6--6---2--2--2--2-------6--6---2------------2-----7--7--7--7--7--7--7--7-|
Ab|--4--4---2--2--2--2-------4--4---2----4p2h4---------7--7--7--7--7--7--7--7-|
Eb|---------0--0--0--0--------------0------------------5--5--5--5--5--5--5--5-|
      "Take me away, no, take me away..."                "I don't wanna lose control..."

A variation of the chorus is played during "Want you to stay, you take the pain away"
Listen to CD to get an idea of the strumming pattern
[ Tab from: http://www.guitartabs.cc/tabs/s/seether/take_me_away_tab_ver_2.html ]
Played between chorus and bridge
Eb|--------------------------------------------------------------------------|
Bb|--------------------------------------------------------------------------|
Gb|--------------------------4--4--------------------------------------------|
Db|---6---4--4----6---4--4---4--4-----6---4--4----6---4--4-----6--6----------|
Ab|---6---4--4----6---4--4---2--2-----6---4--4----6---4--4-----6--6----------|
Eb|---4---2--2----4---2--2------------4---2--2----4---2--2-----4--4----------|

Bridge
Eb|---------------------------------------------------------------------------|
Bb|---------------------------------------------------------------------------|
Gb|---------------------------------------------------------------------------|
Db|---6-6-6-6-6-6---4-4-4-4--4--4----6-6--6--6--6--6---9--9--9--9--9--9---8---|
Ab|---6-6-6-6-6-6---4-4-4-4--4--4----6-6--6--6--6--6---9--9--9--9--9--9---8---|
Eb|---4-4-4-4-4-4---2-2-2-2--2--2----4-4--4--4--4--4---7--7--7--7--7--7---6---|
      "Cleansed and weak, I suffer when I dream..."

Repeat the bridge, and play this just before "Want you to stay, you take the pain away..."
Eb|----0-----0---0-----------------------------------------------------------|
Bb|-------0------0-----------------------------------------------------------|
Gb|--------------------------------------------------------------------------|
Db|--------------------------------------------------------------------------|
Ab|--------------------------------------------------------------------------|
Eb|--------------------------------------------------------------------------|

Fire_Death
Comments