Seether - Sympathetic Chords & Tabs

 

Sympathetic Chords & Tabs

Seether Chords & Tabs

Version: 3 Type: Tab 0 ratings
1 star 2 stars 3 stars 4 stars 5 stars
comments

Sympathetic Tab

Band: Seether
Song: Sympathetic
Tabber: Andrew Biles
E-mail: andrewbiles@hotmail.com

Intro - guitar 1
|---------------------------------
|-----5-------5-------5-------5---
|---7---7---7---7---7---7---7---7-
|-7-------7-------7-------7-------
|---------------------------------
|---------------------------------

guitar 2 (after x2 guitar 1)
|-----0------0-----0-----0-
|---------10-----8-----8---
|---7---9------7-----7-----
|-7------------------------
|--------------------------
|--------------------------

Verse - Guitar 1
|---0-0-0-0----5-5-5-5----3-3-3-3----3-3-3-3-
|---3-3-3-3----5-5-5-5----3-3-3-3----3-3-3-3-
|-2-2-2-2-2--7-7-7-7-7----2-2-2-2----2-2-2-2-
|-----------------------0----------0---------
|--------------------------------------------
|--------------------------------------------
Guitar 2 plays same as intro
[ Tab from: http://www.guitartabs.cc/tabs/s/seether/sympathetic_tab_ver_3.html ]
Chorus
|-------|---------------------------------------------------
|-------|---------------------------------------------------
|-7-7-7-|-7-7-7-7-7-7--4-4-4-4-4-4--------------------------
|-7-7-7-|-7-7-7-7-7-7--4-4-4-4-4-4--5-5-5-5-5-5-5-5-5-5-5-5-
|-5-5-5-|-5-5-5-5-5-5--2-2-2-2-2-2--5-5-5-5-5-5-5-5-5-5-5-5-
|-5-5-5-|-5-5-5-5-5-5--2-2-2-2-2-2--3-3-3-3-3-3-3-3-3-3-3-3-

Bridge
|---------------------
|---------------------
|-------------7-------
|-2-----5-----7-----7-
|-2-----5-----5-----7-
|-0-----3-----------5-

Other part played by guitar 2 - guitar 1 (ghost notes) hold D chord from Bridge
|----------------------------
|----------------------------
|-(7)---------------------12-
|-(7)---------------------x--
|-(5)---------------------10-
|----------------------------
 cos I can make it go away

Guitar 2 may play something different on the outro but I can't tell what
it is at the moment so if I work it out I'll update the tab.
any questions? andrewbiles@hotmail.com
Comments