Seether - Sympathetic Chords & Tabs

 

Sympathetic Chords & Tabs

Seether Chords & Tabs

Version: 2 Type: Tab 0 ratings
1 star 2 stars 3 stars 4 stars 5 stars
comments

Sympathetic Tab

   
this sounds right

Seether-Sympathetic
Album:Disclaimer

Tuining:standard (EADGBe)

Intro:

e|------0------0------0-------0-------0-------0-------0------------------------|
B|----3---3--3---3--3---3---3---3---3---3---3---3---3---3----------------------|
G|--2------2------2-------2-------2-------2-------2-------2--------------------|
D|-----------------------------------------------------------------------------|
A|-----------------------------------------------------------------------------|
E|-----------------------------------------------------------------------------|
  you repeat that for a while


      Verse:
e|--0------------5---------3---------------------------------------------------|
B|--3------------5---------3---------------------------------------------------|
G|--2----------------------2---------------------------------------------------|
D|-----------------------------------------------------------------------------|
A|-----------------------------------------------------------------------------|
E|-----------------------------------------------------------------------------|
these are the chords. figure out the rythym its not that hard.
[ Tab from: http://www.guitartabs.cc/tabs/s/seether/sympathetic_tab_ver_2.html ]
   chorus:
e|-------------------------------------------------------------------------------|
B|-------------------------------------------------------------------------------|
G|-----7--------4----------------------------------------------------------------|
D|-----7--------4----------5-----------------------------------------------------|
A|-----5--------2----------5-----------------------------------------------------|
E|-----5--------2----------3-----------------------------------------------------|
again these are the chords. the rythym isnt hard.

    Bridge:
e|-------------------------------------------------------------------------------|
B|-------------------------------------------------------------------------------|
G|------------------7------------------------------------------------------------|
D|---2-------5------7------7-----------------------------------------------------|
A|---2-------5------5------7-----------------------------------------------------|
E|---0-------3------5------5-----------------------------------------------------|


then you go back to playing the chorus
and thats pretty much it


| /  slide up
| \  slide down
| h  hammer-on
| p  pull-off
| ~  vibrato
| +  harmonic
| x  Mute note

===============================================================================
Comments