Seether - Sympathetic Chords & Tabs

 

Sympathetic Chords & Tabs

Seether Chords & Tabs

Version: 2 Type: Bass Tab 0 ratings
1 star 2 stars 3 stars 4 stars 5 stars
comments

Sympathetic Bass Tab

Seether - Sympathetic
Tabbed By: Kris Kizlyk
EMail: stonepanter@hotmail.com
Album: Fragile


Intro
G|---------7-----------------------------7--------------------
D|-------7-------7-----5---5-----------7-------7-----5---5----
A|-----5-------7-----5-------5-------5-------7-----5-------5--
E|-----------5-----3-----3-----------------5-----3-----3------


Strum these notes
Chorous
	You either can do this 
	G|-----7----14---12-------------------------------------------
	D|-----7----14---12-------------------------------------------
	A|-----5----12---10-------------------------------------------
	E|------------------------------------------------------------
[ Tab from: http://www.guitartabs.cc/tabs/s/seether/sympathetic_btab_ver_2.html ]
	OR
	G|------------------------------------------------------------
	D|------------------------------------------------------------
	A|-----5------------------------------------------------------
	E|----------5---3---------------------------------------------

Verse
G|------------------------------------------------------------
D|------------------------------------------------------------
A|-----5------------------------------------------------------
E|-----------7-----3------------------------------------------

Solo Type riff
G|------------------------------------------------------------
D|------------------------------------------------------------
A|--2---------5-----------------------------------------------
E|------3----------5------------------------------------------

Verse
G|------------------------------------------------------------
D|------------------------------------------------------------
A|-----5------------------------------------------------------
E|-----------7-----3------------------------------------------
Comments