Seether - Sympathetic Chords & Tabs

 

Sympathetic Chords & Tabs

Seether Chords & Tabs

Version: 1 Type: Bass Tab 0 ratings
1 star 2 stars 3 stars 4 stars 5 stars
comments

Sympathetic Bass Tab

#----------------------------------PLEASE NOTE---------------------------------#
#This file is the author's own work and represents their interpretation of the #
#song. You may only use this file for private study, scholarship, or research. #
#------------------------------------------------------------------------------##

Artist: Seether
Album: Disclaimer
Tab: Bass
Song: Sympathetic 
Tabber: Brad

STANDARD TUNING

Intro
|----7-------4---------------------|X2
|--7-------4--------5-------5/7-5--|
|5-------2--------5-------5--------|
|---------------3-------3----------|

Verse
|----7-------4---------------------|
|--7-------4---------5------5/7-5--|
|5-------2---------5------5--------|X4
|----------------3------3----------|

Chorus
|---------------------------------------------------------------|
|---------------------------------------------------------------|
|5-5-5-5-5-5-5-5/2-2-2-2-2-3-2-0--------------------------------|X2
|--------------------------------3-3-3-3-3-3-3-3-3-3-3-3-3-3-3-3|

Verse
|----7-------4------5--------------|
|--7-------4------5---------5/7-5--|
|5-------2------3---------5--------|X4
|-----------------------3----------|
[ Tab from: http://www.guitartabs.cc/tabs/s/seether/sympathetic_btab.html ]
Chorus
|---------------------------------------------------------------|
|---------------------------------------------------------------|X4
|5-5-5-5-5-5-5-5/2-2-2-2-2-3-2-0--------------------------------|
|--------------------------------3-3-3-3-3-3-3-3-3-3-3-3-3-3-3-3|

"The Same Old Feelings, Are Taking Over"
|---------------------------------------------------------------|
|---------------------------------------------------------------|
|2-2-2-2-2-2-2-2-----------------5-5-5-5-5-5-5-5----------------|X3
|----------------3-3-3-3-3-3-3-3-----------------5-5-5-5-5-5-5-5|

|---------------------------------|------|-------------------|
|---------------------------------|------|-------------------|
|2-2-2-2-2-2-2-2-----------------5|------|-5-----5--3--2-----|
|----------------3-3-3-3-3-3-3-3--|------|-------------------|

Chorus
|---------------------------------------------------------------|
|---------------------------------------------------------------|X6
|5-5-5-5-5-5-5-5/2-2-2-2-2-3-2-0--------------------------------|
|--------------------------------3-3-3-3-3-3-3-3-3-3-3-3-3-3-3-3|

There we go, I Hope you enjoyed it. It sounds pretty accurate to me. If anyone 
has any complaints, compliments or just wanna say WASSUP
Send em all to
nagle5000@yahoo.com

BUY THE SEETHER ALBUM. ITS WELL WORTH IT
CHECK THEIR WEBSITE OUT
www.seether.com


---------------------------
 This file passed through:
       Absolute Tabs
   http://www.tabs.co.za
---------------------------
Comments