Seether - Stay And Play Chords & Tabs

 

Stay And Play Chords & Tabs

Seether Chords & Tabs

Version: 1 Type: Tab 0 ratings
1 star 2 stars 3 stars 4 stars 5 stars
comments

Stay And Play Tab

#----------------------------------PLEASE NOTE---------------------------------#
#This file is the author's own work and represents their interpretation of the #
#song. You may only use this file for private study, scholarship, or research. #
#------------------------------------------------------------------------------##

Date: Tue, 18 Dec 2001 17:28:00 +0200
From: g01g4269@campus.ru.ac.za
Subject: s/saron_gas/stay_and_play.tab

Song: "Stay and Play" - (extract from the debut album "Fragile")
Band: Saron Gas
Tabbed By: Alex G.

Another great song from Saron Gas ! 

It kicks some serious ass ! 

Grab your guitar and jam. 


Standard tuning:
---------------- 

EADGBe 


[ Tab from: http://www.guitartabs.cc/tabs/s/seether/stay_and_play_tab.html ]
Intro - Verse : (Main Theme)
--------------
Palm muting with barred chords   
Electric guitar with slight distortion
   
    Give in to me, don't let them see....          
e|--------------------------------------------------------
b|--------------------------------------------------------
g|--------------------------------------------------------
d|-----------------------------------------7--6----------- and so on
a|--0--4--0--4--0--4--0--4--0--4--0--4--4--5--4--0--4--0--
E|--0--2--0--2--0--2--0--2--0--2--0--2--2--------0--2--0--


     See you in the mucous stains....
e|--------------------------------------------------------
b|--------------------------------------------------------
g|--------------------------------------------------------
d|---4--4--4--4--4--7--7--7--7--7--6--6--4--4--4---------- and so on
a|---4--4--4--4--4--7--7--7--7--7--6--6--4--4--4---------
E|---2--2--2--2--2--5--5--5--5--5--4--4--2--2--2----------

Enjoy !   


---------------------------
 This file passed through:
       Absolute Tabs
   http://www.tabs.co.za
---------------------------
Comments