Seether - Sold Me Chords & Tabs

 

Sold Me Chords & Tabs

Seether Chords & Tabs

Version: 1 Type: Tab 0 ratings
1 star 2 stars 3 stars 4 stars 5 stars
comments

Sold Me Tab

Drop D Tuning

| -----------------------------------------------------|
| -----------------------------------------------------|
| -----------------------------------------------------|
| -6h7-6h7h6--6h7-6h7h6--6h7-6h7h6--6h7------7---------|
| -----------------------------------------------0--5--|
| -----------------------------------------------0-----|
Intro (Play first note, just hammer everything else)

| --------------------|
| --------------------|
| --------------------|
| ----7--6h7-6h7-6----|
| -0--5---------------|
| -0------------------|
Verse
[ Tab from: http://www.guitartabs.cc/tabs/s/seether/sold_me_tab.html ]
| ----------------------------------------------------------------|
| ----------------------------------------------------------------|
| ----------------------------------------------------------------|
| ----------------------------------------------------------------|
| -0h2-0h2-0--x---0h2-0h2-0--x---0h2-0h2-0--x--0h2-0--5\----------|
| -0h2-0h2-0--x---0h2-0h2-0--x---0h2-0h2-0--x--0h2-0--5\----------|
Pre-Chorus

| -------------------------------------------------|
| -------------------------------------------------|
| -------------------------------------------------|
| -4--4-4-4--2--2-2-2--2--2-2-2--2--2-2-2-2--------|
| -4--4-4-4--2--2-2-2--0--0-0-0--0--0-0-0-0--------|
| -4--4-4-4--2--2-2-2------------------------------|
Chorus

| ----------------------------------------------------|
| ----------------------------------------------------|
| ----------------------------------------------------|
| ----------------------------------------------------|
| -----------------------------------------12---------|
| -0-12-11-0-12-11-0-12-11-0-12-11-0-12-11------------|
Bridge (guitar 1)

| -----------------------------------------|
| -----------------------------------------|
| ---7\6---14\13---7\6---14\13-----8/9-----|
| -----------------------------------------|
| ---5\4---12\11---5\4---12\11-----6/7-----|
| -0-----0-------0-----0--------0----------|
Bridge (guitar 2)
Comments