Seether - Remedy Chords & Tabs

 

Remedy Chords & Tabs

Seether Chords & Tabs

Version: 4 Type: Tab 1 rating
1 star 2 stars 3 stars 4 stars 5 stars
comments

Remedy Tab

SEETHER
 'REMEDY'

 Tuning: drop D


Intro: Guitars 1&2                Guitar 1 (Guitar 2 plays intro)   
                                  
                                  (1/2 bends)
|-------------------|            |--------------------|          |-------------12----|
|-------------------|            |-12--12--12--12--12-|          |--14--14-14>--0----|
|-------------------| play 4x    |-15>-15>-15>-13---0-| play 2x  |--13--13-13>-------|
|--2---0-2-2-0-5----|            |-14>-14>-14>--0---0-|          |-------------------|
|--2---0-2-2-0-5----|            |--------------------|          |-------------------|
|--2---0-2-2-0-5----|            |--------------------|          |-------------------|
  

Verse: Guitars 1&2
  P.M.|------------------------------------|

    |--------------------------------------|
    |--------------------------------------|
    |--------------------------------------|
    |------2--------0--------2--------5----|
    |----2---2----0---0----2---2----5----5-|
    |--2--------0--------2--------5--------|

    'throw your dollar bills.....'

Chorus: Guitars 1&2

|-------------------|           |--------------------------------|
|-------------------|           |--------------------------------| 
|-------------------|           |-----------------9---9-9--7--7--|
|--2---0-2-2-0-5----| play 2x   |-2---0-2-2-0-----7---7-7--5--5--|     PLAY CHORUS 2x  
|--2---0-2-2-0-5----|           |-2---0-2-2-0-----7---7-7--5--5--|
|--2---0-2-2-0-5----|           |-2---0-2-2-0-----7---7-7--5--5--|  
  


Verse: Guitars 1&2
  P.M.|------------------------------------|

    |--------------------------------------|
    |--------------------------------------|
    |--------------------------------------|
    |------2--------0--------2--------5----|
    |----2---2----0---0----2---2----5----5-|
    |--2--------0--------2--------5--------|

    'i don't need a friend....'

Chorus: Guitars 1&2
[ Tab from: http://www.guitartabs.cc/tabs/s/seether/remedy_tab_ver_4.html ]
|-------------------|           |--------------------------------|
|-------------------|           |--------------------------------| 
|-------------------|           |-----------------9---9-9--7--7--|
|--2---0-2-2-0-5----| play 2x   |-2---0-2-2-0-----7---7-7--5--5--|     PLAY CHORUS 4x  
|--2---0-2-2-0-5----|           |-2---0-2-2-0-----7---7-7--5--5--|
|--2---0-2-2-0-5----|           |-2---0-2-2-0-----7---7-7--5--5--|  
  

Interlude: Guitars 1&2

|-----------------------------------|    
|-----------------------------------|  
|--5-5-5-5-5-5-5-5--2-2-2-2-2-2-2-2-|           
|--5-5-5-5-5-5-5-5--2-2-2-2-2-2-2-2-|    
|--3-3-3-3-3-3-3-3--0-0-0-0-0-0-0-0-|  
|-----------------------------------|  

' hold your eyes closed, take me in!'


Intro Riff: Guitars 1&2          SOLO :Guitar 1   (Guitar 2 plays intro riff)   
                                  
                                                      (1/2 bends)
|-------------------|            |--------------------|          |-------------12----|
|-------------------|            |-12--12--12--12--12-|          |--14--14-14>--0----|
|-------------------| play 4x    |-15>-15>-15>-13---0-| play 2x  |--13--13-13>-------|
|--2---0-2-2-0-5----|            |-14>-14>-14>--0---0-|          |-------------------|
|--2---0-2-2-0-5----|            |--------------------|          |-------------------|
|--2---0-2-2-0-5----|            |--------------------|          |-------------------|
  
     

   |--------------------------------|          |-------------12----|
   |-12---12----12--12--12---12--12-|          |--14--14-14>--0----|
   |-15>--15>---15>-15>-15>--13--0--|          |--13--13-13>-------|
   |-14>--14>---14>-14>-14>--0---0--|          |-------------------|        
   |--------------------------------|          |-------------------|
   |--------------------------------|          |-------------------|



Chorus: Guitars 1&2

|-------------------|           |--------------------------------|
|-------------------|           |--------------------------------| 
|-------------------|           |-----------------9---9-9--7--7--|
|--2---0-2-2-0-5----| play 2x   |-2---0-2-2-0-----7---7-7--5--5--|     PLAY CHORUS 4x  
|--2---0-2-2-0-5----|           |-2---0-2-2-0-----7---7-7--5--5--|
|--2---0-2-2-0-5----|           |-2---0-2-2-0-----7---7-7--5--5--|  
  
Comments