Seether - Remedy Chords & Tabs

 

Remedy Chords & Tabs

Seether Chords & Tabs

Version: 1 Type: Tab 5 ratings
1 star 2 stars 3 stars 4 stars 5 stars
comments

Remedy Tab

   
Seether
Remedy
Tab: Slugfest
       
tuning: Db Ab Db Gb Bb Eb

Intro
--------------------|
--------------------|
--------------------| 
---2---2-2-3-2-0----| 12X
---2---2-2-3-2-0----|
---2---2-2-3-2-0----|

Verse
-------------------------------------|
-------------------------------------|
-------------------------------------|
-----2--------3-------2-------0------| 8x
---2---2----3---3---2---2---0---0----|
-2--------3-------2-------0----------|

Pre Chorus
--------------|
--------------|
-2-2-2-2------|
-2-2-2-2-3-3--|
-0-0-0-0-3-3--|
---------3-3--|

Chorus
--------------------|	    --------------|
--------------------|	    --------------|
--------------------| 	    -2---2-2------|
---2---2-2-3-2-0----| (3x)	    -2---2-2-3-0--| (1x) 
---2---2-2-3-2-0----|	    -0---0-0-3-0--|
---2---2-2-3-2-0----|	    ---------3-0--|

Bridge
----------------------|
----------------------|
--5--7--9--7--5----2--|
--5--7--9--7--5----2--| 2x
--3--5--7--5--3----0--|
----------------------|


Intro (12x)

Verse 1 (8x)
Throw your dollar bills and leave your thrills all here with me 
And speak but don't pretend I won't defend you anymore you see 
It aches in every bone, I'll die alone, but not for you 
My eyes don't need to see that ugly thing, I know it's me you fear 

Pre Chorus (1x)
If you want me hold me back 
[ Tab from: http://www.guitartabs.cc/tabs/s/seether/remedy_tab.html ]
Chorus 1 (2x)
Frail, the skin is dry and pale, the pain will never fail 
And so we go back to the remedy 
Clip the wings that get you high, just leave them where they lie 
And tell yourself, "You'll be the death of me" 

Verse 2 (8x)
I don't need a friend, I need to mend so far away 
So come sit by the fire and play a while, but you can't stay too long 
It aches in every bone, I'll die alone, but not for pleasure 
I see my heart explode, it's been eroded by the weather here 

Pre Chorus (1x)
If you want me hold me back 

Chorus 2 (4x)
Frail, the skin is dry and pale, the pain will never fail 
And so we go back to the remedy 
Clip the wings that get you high, just leave them where they lie 
And tell yourself, "You'll be the death of me" 
Frail, the skin is dry and pale, the pain will never fail 
And so we go back to the remedy 
Clip the wings that get you high, just leave them where they lie 
And tell yourself, "You'll be the death of me" 

Brigde (2x)
Hold your eyes closed, take me in 
Hold your eyes closed, take me in 

Intro (3.5x) 
Chorus no vocal (2x)

Chorus 3 (4x)
Frail, the skin is dry and pale, the pain will never fail 
And so we go back to the remedy 
Clip the wings that get you high, just leave them where they lie 
And tell yourself, "You'll be the death of me" 
Frail, the skin is dry and pale, the pain will never fail 
And so we go back to the remedy 
Clip the wings that get you high, just leave them where they lie 
And tell yourself, "You'll be the death of me"
Comments