Seether - Remedy Chords & Tabs

 

Remedy Chords & Tabs

Seether Chords & Tabs

Version: 1 Type: Bass Tab 2 ratings
1 star 2 stars 3 stars 4 stars 5 stars
comments

Remedy Bass Tab

www.guitartabs.cc
Tabber:stanthemantbb
Seether
Remedy
Intro
G-----------------------------|		X12
D-----------------------------|
A-----------------------------|
D------2-----0--2--2--0--5----|

Verse
G--------------------------------------------------------------------------|
D--------------------------------------------------------------------------|
A------------2------------------0-------------------2---------------------5|
D-2-----------------0--------------------2----------------------5----------|

Pre-chorus
G---------------------|
D---------------------|
A---------------------|
D-7-7-7-7--3-3--------|
[ Tab from: http://www.guitartabs.cc/tabs/s/seether/remedy_btab.html ]
Chorus
G-----------------------------|		X3   G----------------------|
D-----------------------------|		     D----------------------|
A-----------------------------|                    A----------------------|
D------2-----0--2--2--0--5----|                    D-7-7-7-7-0-3-3-3------|

Bridge
G--------------------------------|		X3
D--------------------------------|
A----3--3--3--3--0--0--0--0------|
D--------------------------------|

Outro
G-----------------------------------------|
D-----------------------------------------|
A----3--3--3--3--0--0--0--0-----0---------|
D-----------------------------------------|

Seether is the coolest and remedy is the easiest to play have fun Seether rules!!!
Comments