Seether - Hang On Chords & Tabs

 

Hang On Chords & Tabs

Seether Chords & Tabs

Version: 3 Type: Tab 0 ratings
1 star 2 stars 3 stars 4 stars 5 stars
comments

Hang On Tab

   
hey wats up, its me again (Mathew/A.k.aRoCk3r_GuItArIsT) from Phil.,this is a
tab it as far as i could so have fun!, i dont know what is d real tunning of the
song but i used to make the song easier!, and this is one of the dare devil
soundtrack so have fun! with dis 1! and just listen to the song to get the exact timing.

TUNNING
DROP D

Intro 2x
e|-----------------------------------------------------------|
b|-----------------------------------------------------------|
g|5-5-5-5----------------------------------------------------|
d|5-5-5-5--8-8-8-8-8---1-1-1-1--3--1h3-3---------------------|
a|3-3-3-3--8-8-8-8-8---1-1-1-1--3--1h3-3---------------------|
d|---------8-8-8-8-8---1-1-1-1--3--1h3-3---------------------|

verse
e|-------------------------------------------------|
b|-------------------------------------------------|
g|----5-------3--------3---------5-----------------|
d|----5-------3--------3---------5-----------------|
a|--3-3----1--1-----1--1------3--3-----------------|
d|-0-----0---------0--------0----------------------|
[ Tab from: http://www.guitartabs.cc/tabs/s/seether/hang_on_tab_ver_3.html ]
Chorus
e|-----------------------------------------------------------|
b|-----------------------------------------------------------|
g|5-5-5-5----------------------------------------------------|
d|5-5-5-5--8-8-8-8-8---1-1-1-1--3--1h3-3---------------------|
a|3-3-3-3--8-8-8-8-8---1-1-1-1--3--1h3-3---------------------|
d|---------8-8-8-8-8---1-1-1-1--3--1h3-3---------------------|

(then verse and then chorus)

Bridge
---------------------------------------------------------|
---------------------------------------------------------|
33333333---5---------------------------------------------|
33333333---5--1-1-1-1--3-3-3-----------------------------|
11111111---3--1-1-1-1--3-3-3-----------------------------|
--------------1-1-1-1--3-3-3-----------------------------|

-------------------------------------------------|
-------------------------------------------------|
------5-------3------3--------5------------------|
------5-------3------3--------5------------------|
---3--3----1--1----1-1-----3--3------------------|
-0-------0--------0------0-----------------------|

then you will hear a 2nd guitar in this part
---------------------------------------------|
---------------------------------------------|
-5-5-5-5-------------------------------------|
-5-5-5-5-------------------------------------|
-3-3-3-3-------------------------------------|
---------------------------------------------|

then chorus!

well here it is i dont know if it is 100% correct but i'm sure its 95% correct
but the corrections are welcome and just listen to the song to get the exact
timing of  song ok!,so my e-mail (rock3r_Guitarist@yahoo.com & mat_cyclops15@yahoo.com) have 
thanks for my frend Mark! for giving me the strength to do this.
TAB: Mathew ALIBANGBANG
FROM NORTH FAIRVIEW PHILIPPINES Q.C
Comments