Seether - Hang On Chords & Tabs

 

Hang On Chords & Tabs

Seether Chords & Tabs

Version: 2 Type: Tab 0 ratings
1 star 2 stars 3 stars 4 stars 5 stars
comments

Hang On Tab

   
-------------------------------------------------------------------------------
			     Seether-Hang On
-------------------------------------------------------------------------------


Tabbed by: Jeremy Kowalczyk
Tuning=C,G,C,F,etc.(I only tune down those 4 strings)
[ Tab from: http://www.guitartabs.cc/tabs/s/seether/hang_on_tab_ver_2.html ]
Intro/Chorus (figure out the rythem)
E|---------------------------------------------------------------------------|
B|---------------------------------------------------------------------------|
F|-----5---------------------------------------------------------------------|
C|--0--5--3-3-3h55-3h55------------------------------------------------------|
G|--0--3--3-3-3h55-3h55------------------------------------------------------|
C|--0-----3-3-3h55-3h55------------------------------------------------------|
Verse
E|---------------------------------------------------------------------------|
B|---------------------------------------------------------------------------|
F|--------------------5slideup7----------------------------------------------|
C|----0------3-------5-------x-----------------------------------------------|
G|---0---0--3---3---3-------5-----5------------------------------------------|
C|--0---0--3---3-----------5-----5-------------------------------------------|
Bridge (figure out the rhythem)
E|---------------------------------------------------------------------------|
B|---------------------------------------------------------------------------|
F|--5-----7------------------------------------------------------------------|
C|--5slide7--0---------------------------------------------------------------|
G|--3slide5--0---------------------------------------------------------------|
C|-----------0---------------------------------------------------------------|

And thatís about it

| /  slide up
| \  slide down
| h  hammer-on
| p  pull-off
| ~  vibrato
| +  harmonic
| x  Mute note

===============================================================================
Comments