Seether - Given Chords & Tabs

 

Given Chords & Tabs

Seether Chords & Tabs

Version: 3 Type: Tab

Given Tab

Band:Seether
Song:Given
Album:Karma & Effect (2005)

Iíve had this CD for a while and I finally decided to sit down and tab it out.
Itís a fairly simple song to play; the verse will look hard at first, but once you 
figure out a comfortable fingering, itís easy. Im workiní on tabbing some more 
of Seetherís stuff cuz there ainít a whole bunch of good tabs from Karma & Effect 
on here. Good luck and enjoy!

Tuning: Drop C ( 99% sure; I tried every other tuning and it didnít sound accurate)

Legend:
\-slide down
/-slide up
p-pull off
h-hammer on
~-vibrato
o--|
---| ([ Tab from: http://www.guitartabs.cc/tabs/s/seether/given_tab_ver_3.html ]
2nd and 3rd Chorus Leads
|-------------------------------------------------------------|
|-------------------------------------------------------------|
|-------------------------------------------------------------|
|-------------------------------------------------------------|
|--3-33-3\1/3-3/6-66-6\3/6-6/8-88-8\6/8-8/10-1010-10/13-1313--|
|-------------------------------------------------------------|

Bridge
|-----------------------------------------|
|-----------------------------------------|
|------888-----101010-----888-------------|
|------888-----101010-----888-----10-8-6--|X2 Then go to Solo
|--000-666-000ó-8-8-8-000-666-000-10-8-6--|
|--000-666-000--8-8-8-000-666-000-10-8-6--|



Solo
|--8-8--8-6-10-11~\-----------------------------------|
|------------------6-8-6-3---6-8-6-3--1----6-3-8-10\--|
|----------------------------------------------7--9\--|
|-----------------------------------------------------|
|-----------------------------------------------------|
|-----------------------------------------------------|
*the rhythm behind this is the chorus rhythm. :)


Song order(you figure out how many times to play each):
Verse
Chorus 
Post-Chorus
Verse
Chorus(w/lead)
Post-Chorus
Bridge
Solo
Chorus(w/lead)
Post-Chorus

This is a pretty good song, and the other tab for it didnít do Seether justice. I might
work on an album tab for Karma & Effect, but I donít have a lot of time to tab stuff out,
so wait patiently. I might decide against it; there are a lot of good Seether tabs
between MXtabs and UG. Theyíre not all accurate, but enough to figure it out for
yourself. Oh, if anyone that reads this has the Karma & Effect music book, or a 12
Stones music book, e-mail me, Iíd like to know how accurate I am. If you have questions
or comments, e-mail me.
i_hate_satan16@yahoo.com or guitar_dude_16@hotmail.com, please use my yahoo, only use my
msn unless you canít get yahoo. Enjoy, please rate.