Seether - Given Chords & Tabs

 

Given Chords & Tabs

Seether Chords & Tabs

Version: 1 Type: Tab 0 ratings
1 star 2 stars 3 stars 4 stars 5 stars
comments

Given Tab

-------------------------------------------------------------------------------
Song: Given
Band: Seether
Album: Karma & Effect
-------------------------------------------------------------------------------
Tabbed by:Eric Hines
Email:hineem10@uwgb.edu

Tuning:Dropped d and 1 and 1/2 steps down

Intro/verse
e|--------------------------------------------------------|
B|------3-1-----------------------------------------------|
G|----------2---------------------------7-----------------|
D|----0----------5---5-----5---5------5-------------------|
A|--0--------------------------------5--------------------|
D|-0-----------2---2---2/3---3---3/5----------------------|


Chorus
e|---------------------------------------------------------------------------|
B|--3------------------------3-----------------------------------------------|
G|--2-------10-------7-------2------10-------7------5-5-5-5--7-7-7-7---------|
D|--0-------10-------5-------0------10-------5------3-3-3-3--5-5-5-5---------|
A|--0--------8-------5-------0-------8-------5------3-3-3-3--5-5-5-5---------|
D|--0--------8-------5-------0-------8-------5------3-3-3-3--5-5-5-5---------|

[ Tab from: http://www.guitartabs.cc/tabs/s/seether/given_tab.html ]
Post chorus
e|----------------------------------------------------------------------|
B|--3-3-3------------3-3-3-----------3-3-3----------3-3-3---------------|
G|--2-2-2-10-10-10---2-2-2-12-10-12--2-2-2--8-10-8--2-2-2-12-10-8-------|
D|--0-0-0--x-x--x----0-0-0--x-x---x--0-0-0--x-x--x--0-0-0-x--x--x-------|
A|--0-0-0--8-6--8----0-0-0-10-8--10--0-0-0--6-8--6--0-0-0-10-8--6-------|
D|--0-0-0------------0-0-0-----------0-0-0----------0-0-0---------------|

Bridge
e|---------------------------------------------------------|
B|-3-3-3------3-3-3------3-3-3------3-3-3------------------|
G|-2-2-2--10--2-2-2--12--2-2-2--10--2-2-2------------------|
D|-0-0-0--10--0-0-0--12--0-0-0--10--0-0-0-10-8-7-----------|
A|-0-0-0--8---0-0-0--10--0-0-0--8---0-0-0-10-8-7-----------|
D|-0-0-0--8---0-0-0--10--0-0-0--8---0-0-0-10-8-7-----------|

Solo(rhythm gutiar)
e|----------------------------------------------------|
B|----------------------------------------------------|
G|--7--------10------7-------10------5-5-5--7-7-7-----|
D|--5--------8-------5--------8------3-3-3--5-5-5-----|
A|--5--------8-------5--------8------3-3-3--5-5-5-----|
D|--5--------8-------5--------8------3-3-3--5-5-5-----|

solo
e|------------13-15-----------------------------------------------------------|
B|--15--15-13-----------------------------------------------------------------|
G|-------------------14-12-10-12~--14-12-10-12~-------------10-12-------------|
D|------------------------------------------------12--12-10-------------------|
A|---------------------------------------------------------------12-10-8-10---|
D|----------------------------------------------------------------------------|


| /  slide up
| ~  vibrato
| x  Mute note
===============================================================================
Comments