Seether - Give Chords & Tabs

 

Give Chords & Tabs

Seether Chords & Tabs

Version: 1 Type: Tab 0 ratings
1 star 2 stars 3 stars 4 stars 5 stars
comments

Give Tab

Intro
eb-----------------------------------------------------------|
Bb-----------------------------------------------------------|
Gb---2----5-2-----0---4-0---------2--2-0-----0---------------|
Db-2---2------2-0---0-----0---3----------3-----3-------------|
Ab--------------------------3---3----------3-----------------|
Db-----------------------------------------------------------|

Intro 2
eb-----------------|
Bb-12-----10-------|
Gb----12\----9--12-|
Db-----------------|
Ab-----------------|
Db-----------------|
[ Tab from: http://www.guitartabs.cc/tabs/s/seether/give_tab.html ]
Pre-chorus
eb---------------------------------------------------------------------|
Bb---------------------------------------------------------------------|
Gb---------------------------------------------------------------------|
Db-5--5-5-5-5-5--5-5-5-5--7--7-7-7-7-7--7-7-7-7--3--3-3-3-3-3--3-3-3-3-|
Ab-5--5-5-5-5-5--5-5-5-5--7--7-7-7-7-7--7-7-7-7--3--3-3-3-3-3--3-3-3-3-|
Db-5--5-5-5-5-5--5-5-5-5--7--7-7-7-7-7--7-7-7-7--3--3-3-3-3-3--3-3-3-3-|

Chorus
eb--------------------------------------------------------------------------|
Bb--------------------------------------------------------------------------|
Gb--------------------------------------------------------------------------|
Db-10--10-10-10-10-10--10-10-10-10--5--5-5-5-5-5--5-5-5-5--3--3-3-3-3-3--3--|
Ab-10--10-10-10-10-10--10-10-10-10--5--5-5-5-5-5--5-5-5-5--3--3-3-3-3-3--3--|
Db-10--10-10-10-10-10--10-10-10-10--5--5-5-5-5-5--5-5-5-5--3--3-3-3-3-3--3--|

Solo
eb---------------------------------------------|
Bb---------------------------------------------|
Gb-17------------------------------------------|
Db----15-17-15-14/15-14--------------17--------|
Ab----------------------17-15-14--17b--17r--15-|
Db---------------------------------------------|

Order:
intro
Intro 2
Intro
Pre-chorus
Chorus
Intro2
Intro
Pre-chorus
Chorus
Solo
Intro
Corus

If u find any problems with it
e-mail me @ hendr1x@comcast.net
Comments