Seether - Gift Chords & Tabs

 

Gift Chords & Tabs

Seether Chords & Tabs

Version: 5 Type: Tab

Gift Tab

-----------------------------------------------------------------------------
			     Seether-The Gift
-----------------------------------------------------------------------------
Tabbed by: Ibanez3454

Tuning: 1/2 step down and Drop D


Intro (clean)
e|-------------------------------------------------------------------------|
B|---------1------------0--------------------------------------------------|
G|----2------2------0-----0------------------------------------------------|
D|--2---2------2--0---0-----0-----2---7--7-5-3---5-3-----------------------|
A|------------------------------3---3----------3---------------------------|
E|-------------------------------------------------------------------------|

e|-----------------------------------------------0-------------------------|
B|---------1------------0--------------------------------------------------|
G|----2------2------0-----0------------------------------------------------|
D|--2---2------2--0---0-----0-----2---7--7-5-3-----------------------------|
A|------------------------------3---3----------3---------------------------|
E|-------------------------------------------------------------------------|

Lead over Intro	 (dist.)   Pre-Chorus (clean)   		
e|----------------------|--------------------------------------------------|
B|--12--8---10---5/8~~--|--------------------------------------------------|
G|----------------------|--------------------------------------------------|
D|----------------------|--5-5-5/7-7-7-3-3-3-3-----------------------------|
A|----------------------|--5-5-5/7-7-7-3-3-3-3---------*NOTE*--------------|
E|----------------------|--5-5-5/7-7-7-3-3-3-3-*not the same strum pattern-|

Lead in Pre-Chorus (Dist.)
e|-------------------------------------------------------------------------|
B|-13--------------13------------------------------------------------------|
G|----12--12-14-12----12-12-bend-12----------------------------------------|
D|-------------------------------------------------------------------------|
A|-------------------------------------------------------------------------|
E|-------------------------------------------------------------------------|
[ Tab from: http://www.guitartabs.cc/tabs/s/seether/gift_tab_ver_5.html ]
Chorus (Dist.)
e|-------------------------------------------------------------------------|
B|-------------------------------------------------------------------------|
G|-------------------------------------------------------------------------|
D|-5-7-3---7-5-3---7-5-3---5-7-3-------------------------------------------|
A|-5-7-3---7-5-3---7-5-3---5-7-3------------*NOTE*-------------------------|
E|-5-7-3---7-5-3---7-5-3---5-7-3---In order but without pattern------------|

Solo (Dist.)
e|-------------------------------------------------------------------------|
B|-13----------------------------------------------------------------------|
G|----12-12h14-12-10/12-10-9-10-9-9bend-----------------------------------|
D|-------------------------------------------------------------------------|
A|-------------------------------------------------------------------------|
E|-------------------------------------------------------------------------|

Bridge (Clean)
e|-------------------------------------------------------------------------|
B|---------1------------0--------------------------------------------------|
G|----2------2------0-----0------------------------------------------------|
D|--2---2------2--0---0-----0-----2---7--7-5-3---5-3-----------------------|
A|------------------------------3---3----------3---------------------------|
E|-------------------------------------------------------------------------|


e|-------------------------------------------------------------------------|
B|---------1------------0--------------------------------------------------|
G|----2------2------0-----0--------------------5---------------------------|
D|--2---2------2--0---0-----0-----2---7--7-5-3-5---------------------------|
A|------------------------------3---3----------3---------------------------|
E|-------------------------------------------------------------------------|

Order: 
	Intro 2x
	Intro with Lead 2x
	Intro 2x
	Pre-chorus with lead 2x
	Chorus
	Intro with Lead 2x
	Intro 2x
	Pre-chorus with lead 2x
	Chorus 2x
	Guitar 1: Chorus 1x/Guitar 2: Solo 2x 
	Bridge 
	Chorus
	Guitar 1: Chorus 2x/Guitar 2: Solo 4x
		       
		       END

==============================================================================