Seether - Gift Chords & Tabs

 

Gift Chords & Tabs

Seether Chords & Tabs

Version: 3 Type: Tab 0 ratings
1 star 2 stars 3 stars 4 stars 5 stars
comments

Gift Tab

The Gift
intro/verse/bridge
eb-------------------------------------------------------------------------0-|
Bb-------------------------------------------------------------------------0-|
Gb---2---5-2-----0--4-0--------2--2-0--0-----2--5-2-----0--4-0------2--2-0---|
Db-2--2-----2--0--0----0----3--------3--3--2--2----2--0--0----0---3-------3--|
Ab------------------------3--3--------3-------------------------3--3---------|
Db---------------------------------------------------------------------------|

pre-verse
eb--------------|
Bb-12----10-----|
Gb---12\---9/12-|
Db--------------|
Ab--------------|
Db--------------|

pre-chorus(guitar 2)
eb---------------------------------------------------------------------|
Bb---------------------------------------------------------------------|
Gb---------------------------------------------------------------------|
Db---------------------------------------------------------------------|
Ab-5--5-5-5-5-5--5-5-5-5--7--7-7-7-7-7--7-7-7-7--3--3-3-3-3-3--3-3-3-3-|
Db-5--5-5-5-5-5--5-5-5-5--7--7-7-7-7-7--7-7-7-7--3--3-3-3-3-3--3-3-3-3-|

pre-chorus(guitar 1)
eb-------------------------|
Bb-------------------------|
Gb-17-----------17---------|
Db---15-17-15-14--15-17b/r-|
Ab-------------------------|
Db-------------------------|

chorus
eb--------------------------------------------------------|
Bb--------------------------------------------------------|
Gb--------------------------------------------------------|
Db--------------------------------------------------------|
Ab-10--10-10-10-10-10--10-10-10-10--5--5-5-5-5-5--5-5-5-5-|
Db-10--10-10-10-10-10--10-10-10-10--5--5-5-5-5-5--5-5-5-5-|
[ Tab from: http://www.guitartabs.cc/tabs/s/seether/gift_tab_ver_3.html ]
eb---------------------------------------------------------------------|
Bb---------------------------------------------------------------------|
Gb---------------------------------------------------------------------|
Db---------------------------------------------------------------------|
Ab-3--3-3-3-3-3--3-3-3-3--7--7-7-7-7-7--7-7-7-7--5--5-5-5-5-5--5-5-5-5-|
Eb-3--3-3-3-3-3--3-3-3-3--7--7-7-7-7-7--7-7-7-7--5--5-5-5-5-5--5-5-5-5-|

eb---------------------------------------------------------------------|
Bb---------------------------------------------------------------------|
Gb---------------------------------------------------------------------|
Db---------------------------------------------------------------------|
Ab-3--3-3-3-3-3--3-3-3-3--5--5-5-5-5-5--5-5-5-5-7--7-7-7-7-7--7-7-7-7--|
Eb-3--3-3-3-3-3--3-3-3-3--5--5-5-5-5-5--5-5-5-5-7--7-7-7-7-7--7-7-7-7--|

eb-----------------------|
Bb-----------------------|
Gb-----------------------|
Db-----------------------|
Ab-3--3-3-3-3-3--3-3-3-3-|
Eb-3--3-3-3-3-3--3-3-3-3-|

solo/outro(guitar 1)
eb-----------------------------------------|
Bb-----------------------------------------|
Gb-17--------------------------------------|
Db---15-17-15-14-14/15------------17-------|
Ab--------------------17-15-14-17b--17r-15-|
Eb-----------------------------------------|

solo/outro(guitar 2)
eb-------------------------------------------------------------------|
Bb-------------------------------------------------------------------|
Gb-------------------------------------------------------------------|
Db-------------------------------------------------------------------|
Ab-7--7-7-7-7-7--7-7-7-7-5--5-5-5-5-5--5-5-5-5-3--3-3-3-3-3--3-3-3-3-|
Eb-7--7-7-7-7-7--7-7-7-7-5--5-5-5-5-5--5-5-5-5-3--3-3-3-3-3--3-3-3-3-|

order:
intro
pre-verse
verse
pre-chorus
chorus
pre-verse
verse
pre-chorus
chorus
solo
bridge
chorus
outro

thats it.hope u like it. if there are any problems with it, e-mail me @ hendr1x@comcast.net
Comments