Seether - Gift Chords & Tabs

 

Gift Chords & Tabs

Seether Chords & Tabs

Version: 1 Type: Tab 0 ratings
1 star 2 stars 3 stars 4 stars 5 stars
comments

Gift Tab

   
The Gift
Karma & Effect

tabbed by Matt at Seether-Online.com

Standard Tuning down 1/2 step

1=Eb 4=Db
2=Bb 5=Ab
3=Gb 6=Eb


| ---------------------------------------------------------|
| ---------------------------------------------------------|
| -------5-------------4-------------2--2-0----2-0---------|
| ---5-----5------4-----4-------2-----------2------2-------|
| -3---3-----3--2---2-----2--0---0-------------------------|
| ---------------------------------------------------------|
Intro/Verse

| -----------------------------------------------0----|
| -----------------------------------------------0----|
| -------5------------4-------------2--2-0-----0------|
| ---5-----5------4----4-------2----------2----2------|
| -3---3-----3--2--2-----2--0---0---------------------|
| ----------------------------------------------------|
Intro/Verse (continued...)

| -7-------5---------------|
| ----8~------5~--/8~------|
| -------------------------|
| -------------------------|
| -------------------------|
| -------------------------|
Intro (guitar 2, Pat)

| ----------------------------------------------------------------|
| ----------------------------------------------------------------|
| ----------------------------------------------------------------|
| -5--5-5-5-5--5--5-5-5-5-5--3--3-3-3-3-3--3--3-3-3-3-3-----------|
| -3--3-3-3-3--5--5-5-5-5-5--3--3-3-3-3-3--3--3-3-3-3-3-----------|
| ---------------3--3-3-3-3-3--1--1-1-1-1-1--1--1-1-1-1-1---------|
Pre-Chorus
[ Tab from: http://www.guitartabs.cc/tabs/s/seether/gift_tab.html ]
| -----------------------------------------------------------------|
| -----------------------------------------------------------------|
| -----------------------------------------------------------------|
| -5--5-5-5-5-5--5--5-5-5-5-5--3--3-3-3-3-3--3-3-3-3-3-3-----------|
| -3--3-3-3-3-3--5--5-5-5-5-5--3--3-3-3-3-3--3-3-3-3-3-3-----------|
| -3--3-3-3-3-3--3--3-3-3-3-3--1--1-1-1-1-1--1-1-1-1-1-1-----------|
Chorus(twice)

| -----------------------------------------------------------------|
| -----------------------------------------------------------------|
| -----------------------------------------------------------------|
| -5--5-5-5-5-5--7--7-7-7-7-7--3--3-3-3-3-3--3-3-3-3-3-3-----------|
| -5--5-5-5-5-5--7--7-7-7-7-7--3--3-3-3-3-3--3-3-3-3-3-3-----------|
| -3--3-3-3-3-3--5--5-5-5-5-5--1--1-1-1-1-1--1-1-1-1-1-1-----------|
Chorus(continued...)

| -8------------------------------------|
| ---8--7-6--5--5/7--5-4\2--------------|
| ----------------------------4---7b----|
| --------------------------------------|
| --------------------------------------|
| --------------------------------------|
Guitar Solo (Guitar 2, Pat)

| -8--------------------------------------|
| ---8--7-6--5--5/7--5-4\2----------------|
| ----------------------------4---7b------|
| ------------------------------------8---|
| ----------------------------------------|
| ----------------------------------------|
Guitar Solo (Guitar2, Pat...continued...)

| -------------------------------------------------------|
| -------------------------------------------------------|
| -------5-----------4--------------2--2-0----2-0--------|
| ---5-----5------4----4-------2----------2-------2------|
| -3---3-----3--2--2-----2--0---0------------------------|
| -------------------------------------------------------|
Bridge

| ---------------------------0---|
| ---------------------------0---|
| --------5------------4----0----|
| ---5-----5-------4-----4-2-----|
| -3---3-----3--2----2-----------|
| -------------------------------|
Bridge (Continued...)
Comments