Seether - Gasoline Chords & Tabs

 

Gasoline Chords & Tabs

Seether Chords & Tabs

Version: 8 Type: Tab 0 ratings
1 star 2 stars 3 stars 4 stars 5 stars
comments

Gasoline Tab

   
-------------------------------------------------------------------------------
			     Gasoline - Seether
-------------------------------------------------------------------------------
Tabbed by: Letty
Email: takeyourbooksandleave@hotmail.com

Tuning: Drop D (D A D G B E)

[x = mute]
[h = hammer on]

Intro ( X4)

e|-----------------|
B|-----------------|
G|-----------------|
D|1-1-1-x-x-x-x-x-x|
A|1-1-1-x-x-x-x-x-x|
D|1-1-1-x-x-x-x-x-x|


Intro Pt 2

e|---------------------------------------------------------------------------|
B|---------------------------------------------------------------------------|
G|------1-1-----1h2h1----------1-1-----1h2h1----------1-1-----1h2h1----------|
D|1-1-1-----4-4-------4--1-1-1-----4-4-------4--1-1-1-----4-4-------4--------|
A|1-1-1------------------1-1-1------------------1-1-1------------------------|
D|1-1-1------------------1-1-1------------------1-1-1------------------------|

e|---------------------------------------------------------------------------|
B|---------------------------------------------------------------------------|
G|------1-1-----5-5-5-5------------------------------------------------------|
D|1-1-1-----4-4--------------------------------------------------------------|
A|1-1-1----------------------------------------------------------------------|
D|1-1-1----------------------------------------------------------------------|


Verse
[ Tab from: http://www.guitartabs.cc/tabs/s/seether/gasoline_tab_ver_8.html ]
e|--------------------------------------------------------------------|
B|--------------------------------------------------------------------|
G|------------------------------------------1h2h1---------------------|
D|1-1-1----------------1-1-1----------------------4--1-1-1-x-x-x-x-x-x|
A|1-1-1----------------1-1-1-------------------------1-1-1-x-x-x-x-x-x|
D|1-1-1----------------1-1-1-------------------------1-1-1-x-x-x-x-x-x|
          ..her face on      ..bases life on

e|-------------------------------------------------------|
B|-------------------------------------------------------|
G|-------------------------------------------------------|
D|1-1-1-x-x-x-x-x-x--1-1-1-x-x-x-x-x-x--1-1-1-x-x-x-x-x-x|
A|1-1-1-x-x-x-x-x-x--1-1-1-x-x-x-x-x-x--1-1-1-x-x-x-x-x-x|
D|1-1-1-x-x-x-x-x-x--1-1-1-x-x-x-x-x-x--1-1-1-x-x-x-x-x-x|


Chorus (x 4)

e|---------------|
B|---------------|
G|-----4/6-------|
D|1-1--4/6--4-4-4|
A|1-1--2/4--4-4-4|
D|1-1-------4-4-4|


(Intro pt. 2)

(Verse)

(Chorus)


Bridge (x 4)

e|------------|
B|------------|
G|----66554433|
D|1-1-66554433|
A|1-1-44332211|
D|1-1---------|

e|-------------------------------------|
B|-------------------------------------|
G|----------------------------1-1h2h1--|
D|------------------------------------4|
A|-------------------------------------|
D|-------------------------------------|
  ..what she whipes her ass on


(Intro)


Outro (X4)

e|-------------------|
B|-------------------|
G|-------------------|
D|1-1-1-x-x-x-x-66-44|
A|1-1-1-x-x-x-x-66-44|
D|1-1-1-x-x-x-x-66-44|
Comments