Seether - Gasoline Chords & Tabs

 

Gasoline Chords & Tabs

Seether Chords & Tabs

Version: 7 Type: Tab 0 ratings
1 star 2 stars 3 stars 4 stars 5 stars
comments

Gasoline Tab

   
Arist: Seether
Song: Gasoline
Album: *Disclaimer

tuning: half a step and drop d (C# G# C# F# A# D#)

okly doke, i've seen lots of versions that were closee to being right, and
some that were practically right only in the wrong tuning. so here, in the right
tuning, is the correct version.


*Note: i will just refer to the strings in e a d g b e form, but they are
       still tuned down


Intro :
e-----------------------------------------------------------------------------|
b-----------------------------------------------------------------------------|
G-----------------0-----------------0-----------------0-----------------0-2-2-|
D-2-2-------------0-2-2-------------0-2-2-------------0-2-2-------------0-2-2-|
A-2-2-xx-x-x-x-xx---2-2-xx-x-x-x-xx---2-2-xx-x-x-x-xx---2-2-xx-x-x-x-xx---2-2-|
E-2-2-xx-x-x-x-xx---2-2-xx-x-x-x-xx---2-2-xx-x-x-x-xx---2-2-xx-x-x-x-xx---2-2-|

intro continued (there is not pause after the above, i just ran out of space)
 ----------------------------------------------------------------------|
 ----------------------------------------------------------------------|
 -2-2-0-0-2s3-3-----2-2-0-0-2s3-3-----2-2-0-0-2s3-3-----2-2-0-0-2s5-5--|
 -2-2-0-0-2s3-3-2-2-2-2-0-0-2s3-3-2-2-2-2-0-0-2s3-3-2-2-2-2-0-0-2s5-5--|
 ---------------2-2---------------2-2---------------2-2----------------|
 ---------------2-2---------------2-2---------------2-2----------------|
[ Tab from: http://www.guitartabs.cc/tabs/s/seether/gasoline_tab_ver_7.html ]
Verse
e----------------------------------------------------------------------------|
b----------------------------------------------------------------------------|
G------------------------------------------------------------------0-2s3s2-0-|
D-2-2--------------2-2-------------------------------------------------------|
A-2-2-xx--------xx-2-2-------------------------------------------------------|
E-2-2-xx--------xx-2-2-------------------------------------------------------|
  "last night.."   "i wanna be that magazine that she bases life on"

  "want to waste her monthly blood..." and so on is just the first part of
   intro (the part on the intro before the drums)

chorus (the chords in order, the strum pattern is a little to hard for paper)
e----------------|
b----------------|
G----------------|
D-2--7--5--x-----|
A-2--7--5--x-----|
E-2--7--5--x-----|

screaming part X4

e-----------------------|
b-----------------------|
G-----------------------|
D-2-22-7-6-5-4-3-2------|
A-2-22-7-6-5-4-3-2------|
E-2-22-7-6-5-4-3-2------|


little interlude ditty (i'm not sure about the # of times for 9's and 7's)
e--------------------------------------------------------------------|
b--------------------------------------------------------------------|
G-9-9-9-9-9-9-9-9-9-9-9-9-9-9-9-9-7-7-7-7-9-9-9-9-9-9-9-9-0-2s3s2-0--|
D--------------------------------------------------------------------|
A--------------------------------------------------------------------|
E--------------------------------------------------------------------|


Thats about it. it is fairly easy to figure out after you know what to play...
Comments