Seether - Gasoline Chords & Tabs

 

Gasoline Chords & Tabs

Seether Chords & Tabs

Version: 1 Type: Tab 3 ratings
1 star 2 stars 3 stars 4 stars 5 stars
comments

Gasoline Tab

Artist:	Seether
Song: Gasoline
Tuning:	Standard tuning dropped half a step to Eb
Tabbed by: Shaun Morgan

Intro: 	Guitars 1 and 2 play together 3 times
EbI------------------------------------------------------------------12-12-12--
Bb|------------------------------------------------------------------12-12-12--
Gb|------------------------------------------------------------------12-12-12--
Db|----2-2-x-x--x--x--x--x-x-x-----------2-2-x-x--x--x--x----------------------
Ab|----2-2-x-x--x--x--x--x-x-x-----------2-2-x-x--x--x--x----------------------
Eb|----0-0-x-x--x--x--x--x-x-x-----------0-0-x-x--x--x--x----------------------


Verse Riff: Guitar 1
					3x				Last time
Eb|----------------------------------------------------------------------------
Bb|----------------------------------------------------------------------------
Gb|-----------9-9--7-7/10--10------------------------------9-9--7-7/12-12-12---
Db|----2-2-x----------------------------------------2-2-x----------------------
Ab|----2-2-x--7-7--5-5/8---8------------------------2-2-x--7-7--5-5/10-10-10---
Eb|----0-0-x----------------------------------------0-0-x----------------------


Verse Riff: Guitar 2
					3x				Last time
Eb|----------------------------------------------------------------------------
Bb|----------------------------------------------------------------------------
Gb|----------------------------------------------------------------------------
Db|----2-2-x-7-7-5-5/8--8--8------------------------2-2-x--7-7--5-5/10-10-10---
Ab|----2-2-x----------------------------------------2-2-x----------------------
Eb|----0-0-x----------------------------------------0-0-x----------------------

The guitar part under the vocals is pretty self explanatory, with the second 
half being the same as the intro... Then...
[ Tab from: http://www.guitartabs.cc/tabs/s/seether/gasoline_tab.html ]
Chorus: Guitars 1 and 2.
Eb|----------------------------------------------------------------------------
Bb|----------------------------------------------------------------------------
Gb|------------5/7--7--7-------------------------------------------------------
Db|----2-x-----5/7--7--7--0---5--5--5--5---------------------------------------
Ab|----2-x-0---3/5--5--5--0---5--5--5--5---------------------------------------
Eb|----0-x-0---3/5--5--5--0---3--3--3--3---------------------------------------

Repeat whole process...Then...

Bridge: Guitars 1 and 2.
Eb|----------------------------------------------------------------------------
Bb|----------------------------------------------------------------------------
Gb|----------------------------------------------------------------------------
Db|----2-x-0-7\6--6-6\5--5-5\4-4\3-3\2-----------------------------------------
Ab|----2-x-0-5\4--4-4\3--3-3\2-2\1-1\0-----------------------------------------
Eb|----0-x-0-5\4--4-4\3--3-3\2-2\1-1\0-----------------------------------------


Bridge: Guitars 1 and 2 - one guitar part has a wah wah effect on it, along 
with some chorus
Eb|----------------------------------------------------------------------------
Bb|----------------------------------------------------------------------------
Gb|-9-9-9-9-9-9-9-9-9-9-9-9-9-9-9-9-9-9-9-9-9-9-9-9-9-9-9-9-9-7-7-7------------
Db|----------------------------------------------------------------------------
Ab|----------------------------------------------------------------------------
Eb|----------------------------------------------------------------------------


Repeat Chorus twice and end the song thus…
Eb|----------------------------------------------------------------------------
Bb|----------------------------------------------------------------------------
Gb|---------------------7-7----------------------------------------------------
Db|---2-2-x-x--x--x--x--7-7--5-------------------------------------------------
Ab|---2-2-x-x--x--x--x--5-5--5-------------------------------------------------
Eb|---0-0-x-x--x--x--x--5-5--3-------------------------------------------------

Those are just the basics - feel free to change anything you want, or add anything!
Comments