Seether - Gasoline Chords & Tabs

 

Gasoline Chords & Tabs

Seether Chords & Tabs

Version: 1 Type: Bass Tab 0 ratings
1 star 2 stars 3 stars 4 stars 5 stars
comments

Gasoline Bass Tab

   
-------------------------------------------------------------------------------
			     Seether - Gasoline
-------------------------------------------------------------------------------

Tabbed By : MiltownBass

My favorite Seether song to play.
Please Rate

Tuning: Drop-D

Intro
  (0:05)  
G|-----------------|
D|-----------------|
A|-----------------|
D|-1-1-----1-1-----|

Verse
  (0:11)
G|-----------------------------|
D|--------------------(12x)----|
A|-----------------------------|
D|-1-1-/13\---1/13\------------|
[ Tab from: http://www.guitartabs.cc/tabs/s/seether/gasoline_btab.html ]
 Chorus
  (0:44)
G|--------------------------------|
D|-------------------------(4x)---|
A|-------1/4-4-4------------------|
D|-1--1-1---------4--4-4----------|

Verse (12x)(0:56)
Chorus (4x)(1:28)

Bridge
  (1:39)
G|----------------------------------------|
D|---------------------------------(8x)---|
A|--------4-4-4-3--2-2-2-1-1-1-1----------|
D|-1-1-1----------------------------------|

Verse (4x)(2:01)
Chorus (8x)(2:12)

Outro
  (2:35)
G|------------------------------------|
D|------------------------------------|
A|------------------(3x)----4-4-4-----|
D|-1-1---1-6-4-1-1--------1-----------|



| /  slide up
| \  slide down
===============================================================================
Comments