Seether - Fuck It Chords & Tabs

 

Fuck It Chords & Tabs

Seether Chords & Tabs

Version: 5 Type: Tab 0 ratings
1 star 2 stars 3 stars 4 stars 5 stars
comments

Fuck It Tab

   
-----------------------------------------------------------------------------
			     Fxxk it - seether
-----------------------------------------------------------------------------
Tabbed by:G.FOESSEL (metalverlinde)
Email: fluo999@aol.com

Tuning:

| /  slide up
| \  slide down
| h  hammer-on
| p  pull-off
| ~  vibrato
| +  harmonic
| x  Mute note


intro and verse :
e|----------------------------------------------------------------------------|
B-----------------------------------------------------------------------------|
G|----------------------------------------------------------------------------|
D|----------------------------------------------------------------------------|
A|----9-----9----9-----10----10---7------9----9----9----10----10h11-11-11-----|
E|--9-----9-----9----9-----9------7----9----9----9----9-----9-----------------|


chorus :
e|-------------------------------------------------------------------|
B|-------------------------------------------------------------------|
G|-------------------------------------------------------------------|
D|-0-1-1-0-6-5-0-8---------------------------------------------------|
A|-0-1-1-0-6-5-0-8---------------------------------------------------|
E|-0-1-1-0-6-5-0-8---(8 times) --------------------------------------|

bridge :
e|----------------------------------------------------------------------------|
B|----------------------------------------------------------------------------|
G|----------------------------------------------------------------------------|
D|----------------------------------------------------------------------------|
A|----------------------------------------------------------------------------|
E|-1-1-1--1--1-2-2-2-( tree times)--1-1-1--1--1-4-3-2-------------------------|

[ Tab from: http://www.guitartabs.cc/tabs/s/seether/fuck_it_tab_ver_5.html ]
e|----------------------------------------------------------------------------|
B|----------------------------------------------------------------------------|
G|----------------------------------------------------------------------------|
D|----------------------------------------------------------------------------|
A|----1-1-1---------------------------1-1-1-----------------------------------|
E-----1-1-1--1--1-2-2-2-(tree times)--1-1-1--1--1-4-3-2-----------------------|

e|-------------------------------------------------------------------------|
B|-------------------------------------------------------------------------|
G|-------------------------------------------------------------------------|
D|-1-1-1--1--1-4(5)------------------1-1-1--1-4-3-2------------------------|
A|-1-1-1--1--1-4(5)------------------1-1-1--1-4-3-2------------------------|
E|-1-1-1--1--1-4(5)---( tree times)--1-1-1--1-4-3-2------------------------|

2nd  bridge :
e|-------------------------------------------------------------------------|
B|-----------------5-------------------------------------------------------|
G|-----------------5-------------------------------------------------------|
D|------1-2-1-2-1--5------(6 times)----------------------------------------|
A|-x-x--1-2-1-2-1----------------------------------------------------------|
E|-x-x--1-2-1-2-1----------------------------------------------------------|

and it finishes with it :
e|-------------------------------------------------------------------------|
B|-------------------------------------------------------------------------|
G|-------------------------------------------------------------------------|
D|------1-2-1-2-1-------x-x------------------------------------------------|
A|-x-x--1-2-1-2-1--x-x-----------------------------------------------------|
E|-x-x--1-2-1-2-1--x-x-----------------------------------------------------|

good luck !
Comments