Seether - Fuck It Chords & Tabs

 

Fuck It Chords & Tabs

Seether Chords & Tabs

Version: 3 Type: Tab 0 ratings
1 star 2 stars 3 stars 4 stars 5 stars
comments

Fuck It Tab

   
-------------------------------------------------------------------------------
			     Seether - Fuck It
-------------------------------------------------------------------------------
Tabbed by: Jeremy Kowalczyk
Email: RudeAwakening111@aol.com

Tuning:Db,Ab,Db,Gb,Bb,Eb

Intro/Verse
Eb|---------------------------------------------------------------------------|
Bb|---------------------------------------------------------------------------|
Gb|---------------------------------------------------------------------------|
Db|--------------------------7------------------------------------------------|
Ab|---9--9--9—-10—10slidedown7--------9--9--9--10—-10h12----------------------|
Db|--9--9--9--9---9----------7-------9--9--9--9---9---------------------------|
[ Tab from: http://www.guitartabs.cc/tabs/s/seether/fuck_it_tab_ver_3.html ]
Chorus (this is 100% correct)
Eb|---------------------------------------------------------------------------|
Bb|---------------------------------------------------------------------------|
Gb|---------------------------------------------------------------------------|
Db|--0-1-1-0-6-5-0-8----------------------------------------------------------|
Ab|--0-1-1-0-6-5-0-8----------------------------------------------------------|
Db|--0-1-1-0-6-5-0-8----------------------------------------------------------|

Bridge (hand-muted)
Eb|---------------------------------------------------------------------------|
Bb|---------------------------------------------------------------------------|
Gb|---------------------------------------------------------------------------|
Db|--0-0-0--0--0-1-1-3--------------------------------------------------------|3x
Ab|--0-0-0--0--0-1-1-3--------------------------------------------------------|
Db|--0-0-0--0--0-1-1-3--------------------------------------------------------|

Bridge Continued (on the 4th time of the bridge do this…….)
Eb|---------------------------------------------------------------------------|
Bb|---------------------------------------------------------------------------|
Gb|---------------------------------------------------------------------------|
Db|--0-0-0--0--0-3-0-1--------------------------------------------------------|
Ab|--0-0-0--0--0-3-0-1--------------------------------------------------------|
Eb|--0-0-0--0--0-3-0-1--------------------------------------------------------|

Chorus

| /  slide up
| \  slide down
| h  hammer-on
| p  pull-off
| ~  vibrato
| +  harmonic
| x  Mute note
===============================================================================
There ya go I know its pretty right!
Comments