Seether - Fine Again Chords & Tabs

 

Fine Again Chords & Tabs

Seether Chords & Tabs

Version: 7 Type: Tab 0 ratings
1 star 2 stars 3 stars 4 stars 5 stars
comments

Fine Again Tab

Fine Again By SEETHER made by Colin Southey
This is a great song and it was hard to make so enjoy it!

Reapeat 2
[ Tab from: http://www.guitartabs.cc/tabs/s/seether/fine_again_tab_ver_7.html ]
E:    ---------------------------------------------------------------
B:    ---------------------------------------------------------------
G:    -----------------------------------------------------7--7--------
D:    -------4---------------7----------------2------------7--7-----------
A:    ----4----4----------7-----7----------2-----2---------5--5--------------
E:    --2--------------5----------------0-------------------------------


E:    ----------------------------------------------------------------
B:    ----------------------------------------------------------------
G:    ----------------------------------------------------------------
D:    ---4--4----------7--7--7--7-------2--2---------------7--7--7--7-------------
A:    ---4--4----------7--7--7--7-------2--2---------------7--7--7--7-------------
E:    ---2--2----------5--5--5--5-------0--0---------------5--5--5--5-------------


        ENJOY THE SONG!!!
Comments