Seether - Fine Again Chords & Tabs

 

Fine Again Chords & Tabs

Seether Chords & Tabs

Version: 5 Type: Tab 0 ratings
1 star 2 stars 3 stars 4 stars 5 stars
comments

Fine Again Tab

   
ARTIST/SEETHER
SONG/ FINE AGAIN
ALBUM/DISCLAIMER
WIND-UP RECORDS

  ~~  HOLD NOTE
   /  SLIDE


            INTRO (CLEAN)
 E--------------------0--0
 B--------------------3--3
 G--------------------2--2
 D---4------7----2----0--0  
 A--4-4/6--7-7--2-2---0--0
 E-2------5----0------X--X

      

  
           1st verse (CLEAN) 
NOT EXACTLY SURE OF THE STRUMMING PATTERN
BUT LISTEN TO THE SONG AND YOU WILL GET IT.
 E-------------------------------0-0--
 B-------------------------------3-3--
 G-------------------------------2-2--
 D-4-4-4---7-7-7-7-7---2-2-2222--0-0--
 A-4-4-4---7-7-7-7-7---2-2-2222--0-0--   Repeat until chorus.
 E-2-2-2---5-5-5-5-5---0-0-0000--X-X--
 
         

     IT SEEMS LIKE EVERY
     DAY IS MADE UP AND I-M LEFT
     TO -DIS-CO-VER  MY OWN 
 
     IT SEEMS THAT EVERYTHING IS GREY
     AND THER-E'S NO CO-LOR LEFT TO BEHOLD

     THEY SAY IT'S OVER AND I'M
     FINE AGAIN...YEAH

     TRY-ING TO STAY SOBER 
     FEELS LIKE I'M DY-ING... YEAHH...


   INTRO LICK TO CHORUS  (DISTORION)         
     E----------
     B-333-3-3-3
     G-222-2-2-2
     D-000-0-0-0                                  
     A-000-0-0-0
     E-XXX-X-X-X


           cHORUS
 E-----------------------
 B-----------------------  REAPEAT
 G------7-77/4-44/999-99-    3 X'S
 D-4-44-7-77/4-44/999-99-
 A-4-44-5-55/2-22/777-77-
 E-2-22-5-55/2-22/777-77-

 I AM AWARE NOW THAT EVERYTHING'S GONNA BE FINE  
 SOME DAY TOO LATE  I WILL TELL 
  

 I AM PREPARED NOW THAT EVERYTHING'S GONNA BE FINE
  FOR ME TO BE BY MYSELF



          2ND verse INTRO WITH (BACK TO CLEAN)

"I FEEL A DREAM IN ME EXPIRE 
 E-------------------0--0
 B-------------------3--3
 G-------------------2--2
 D---4-----7-----2---0--0  
 A--4-4---7-7---2-2--0--0
 E-2-----5-----0---- X--X


[ Tab from: http://www.guitartabs.cc/tabs/s/seether/fine_again_tab_ver_5.html ]
 E-------------------------------0-0--
 B-------------------------------3-3--
 G-------------------------------2-2--
 D-4-4-4---7-7-7-7-7---2-2-2222--0-0--
 A-4-4-4---7-7-7-7-7---2-2-2222--0-0--   Repeat until chorus.
 E-2-2-2---5-5-5-5-5---0-0-0000--X-X--
 
  AND THERE'S NO ONE LEFT TO BLAME IT ON

  I HEAR YOU LABEL ME A LIAR CAUSE I CAN'T
  SEEM TO GET THIS THROUGH


     YOU SAY IT'S OVER AND I
     CAN SI-GH  AGAIN...YEAHH..

     WHY TRY TO STAY SOBER 
     WHEN  I'M DY-ING... YEAHH...


   INTRO LICK TO CHORUS  (DISTORION)         
     E----------
     B-333-3-3-3
     G-222-2-2-2
     D-000-0-0-0                                  
     A-000-0-0-0
     E-XXX-X-X-X

           cHORUS (DISTORTION)
 E-----------------------
 B-----------------------  REAPEAT
 G------7-77/4-44/999-99-    3 X'S
 D-4-44-7-77/4-44/999-99-
 A-4-44-5-55/2-22/777-77-
 E-2-22-5-55/2-22/777-77-

 I AM AWARE NOW THAT EVERYTHING'S GONNA BE FINE  
 SOME DAY TOO LATE  I WILL TELL 
  

 I AM PREPARED NOW THAT EVERYTHING'S GONNA BE FINE
  FOR ME TO BE BY MYSELF.


                           
 E---------------------
 B---------------------
 G-----------7--------5-   (repeat 3x)
 D----------7--------5-
 A---------5--------3--
 E----3/5~~~~~----3~~~-

  AND I'M NOT SCARED NOW
  AND I'M NOT SCARED (YOURE NEVER GONNA GETAWAY)
  AND I'M NOT SCARED NOW
  AND I'M NOT SCARED.(YOURE NEVER GONNA GETAWAY)


   PLAY THE CHORUS PART THROUGH THE SOLO 3XS

 THEN PLAY THIS AGAIN

           cHORUS
 E-----------------------
 B-----------------------  REAPEAT
 G------7-77/4-44/999-99-    3 X'S
 D-4-44-7-77/4-44/999-99-
 A-4-44-5-55/2-22/777-77-
 E-2-22-5-55/2-22/777-77-

 I AM AWARE NOW THAT EVERYTHING'S GONNA BE FINE  
 SOME DAY TOO LATE  I WILL TELL 
  

 I AM PREPARED NOW THAT EVERYTHING'S GONNA BE FINE
  FOR ME TO BE BY MYSELF



    OUTRO-  "I'LL BE FINE    AGAAAINNNNNNNN"

     HOLD THIS CHORD
 
 E----------------------
 B----------------------  
 G----------------------   
 D-4~~~~~~~~~~~---------
 A-4~~~~~~~~~~~---------
 E-2~~~~~~~~~~----------
Comments