Seether - Fine Again Chords & Tabs

 

Fine Again Chords & Tabs

Seether Chords & Tabs

Version: 14 Type: Tab 0 ratings
1 star 2 stars 3 stars 4 stars 5 stars
comments

Fine Again Tab

-------------------------------------------------------------------------------
			     Fine again - Seether
-------------------------------------------------------------------------------

By:Zero
Standard Tunning [EADGBe]

Guitar 1:intro
e|---------------------------------------------------------------------------|
B|---------------------------------------------------------------------------|
G|---------------------------------------------------------------------------|
D|-4-4-4-4--7-7-7-7--2-2-2-2--7-7-7------------------------------------------|
A|-4-4-4-4--7-7-7-7--2-2-2-2--7-7-7------------------------------------------|
E|-2-2-2-2--5-5-5-5--0-0-0-0--5-5-5------------------------------------------|

Gutar 2:intro
e|---------------------------------------------------------------------------|
B|---------------------------------------------------------------------------|
G|---------------------------------------------------------------------------|
D|-----4--------7-------2----7-7-7-------------------------------------------|
A|---4---4----7---7---2---2--7-7-7-------------------------------------------|
E|-2--------5-------0--------5-5-5-------------------------------------------|

Guitar 1:verse
e|---------------------------------------------------------------------------|
B|---------------------------------------------------------------------------|
G|--------------------7-7-7-7------------------------------------------------|
D|-4-4--7-7-7-7--2-2--7-7-7-7------------------------------------------------|
A|-4-4--7-7-7-7--2-2--5-5-5-5------------------------------------------------|
E|-2-2--5-5-5-5--0-0---------------------------------------------------------|

Guitar 1:chorus:play with distortion
e|---------------------------------------------------------------------------|
B|---------------------------------------------------------------------------|
G|------7-7-7-7--4-4---------------------------------------------------------|
D|-4-4--7-7-7-7--4-4--2-2-2-2--4-4-------------------------------------------|
A|-4-4--5-5-5-5--2-2--2-2-2-2--4-4-------------------------------------------|
E|-2-2----------------0-0-0-0--2-2-------------------------------------------|
[ Tab from: http://www.guitartabs.cc/tabs/s/seether/fine_again_tab_ver_14.html ]
Bridge:
e|---------------------------------------------------------------------------|
B|---------------------------------------------------------------------------|
G|---------------------------------------------------------------------------|
D|---------------------------------------------------------------------------|
A|-2/5----5/2----2/5----5/2----2/5----5/2----2/5----5/2----------------------|
E|---------------------------------------------------------------------------|

Guitar 1:outro
e|---------------------------------------------------------------------------|
B|---------------------------------------------------------------------------|
G|------7-7-7-7--4-4-4-4------------------------------------------------------|
D|-4-4--7-7-7-7--4-4-4-4--2-2-2-2--4-4---------------------------------------|
A|-4-4--5-5-5-5--2-2-2-2--2-2-2-2--4-4---------------------------------------|
E|-2-2--------------------0-0-0-0--2-2---------------------------------------|

Guitar 2:outro:play with distortion, and maybee a little wah...
e|-9----9----9----9----10----10----10-----10---------------------------------|
B|---11---11---11----11----11----11----11------------------------------------|
G|---------------------------------------------------------------------------|
D|---------------------------------------------------------------------------|
A|---------------------------------------------------------------------------|
E|---------------------------------------------------------------------------|



verse:


It seems like every dayís the same           
and Iím left to discover on my own,
It seems like everything is gray     
and thereís no color to behold       
They say itís over and Iím fine again, yeah 
Try to stay sober feels like Iím dying here


chorus 

         
And I am aware now of how
everythingís gonna be fine one day
Too late, Iím in hell 
I  am prepared now, 
seems everyoneís gonna be fine 
One day too late, just as well

I feel the dream in me expire and thereís 
no one left to blame it on 
I hear you label me a liar 
Ďcause I canít seem to get this through 
You say itís over, I can sigh again, yeah 
Why try to stay sober when Iím dying here


chorus 

And I am aware now of how 
everythingís gonna be fine one day 
Too late, Iím in hell  
I  am prepared now,
seems everyoneís gonna be fine 
One day too late; just as well

And Iím not scared now. 
I must assure you, (you're never gonna get away)
And Iím not scared now.
And Iím not scared now. NoÖ

I  am aware now of how 
everythingís gonna be fine one day
Too late, Iím in hell
I  am prepared now
seems everyoneís gonna be fine
One day too late, just as well
I  am prepared now, 
seems everythingís gonna be fine for me
For me; for myself.
For me, for me, for myself
For me, for me, for myself
I  am prepared now for myself
I  am prepared now, and I am fiiiiiiiiin...again


===========================================================================
Comments