Seether - Fine Again Chords & Tabs

 

Fine Again Chords & Tabs

Seether Chords & Tabs

Version: 11 Type: Tab 0 ratings
1 star 2 stars 3 stars 4 stars 5 stars
comments

Fine Again Tab

   
Band:Seether
Song:Fine Again
Album:Disclaimer
Tabbed by:Humberto Manzolini
E-Mail:humbertocreed@hotmail.com

This is my first tab but I'm sure it is correct.

Tuning:Standard (E,A,D,G,B,E)

Intro
Guitar 1
E|-----------------------------------------------------------|
B|-----------------------------------------------------------|
G|---------------------------2-2-----------------------------|
D|-----4-------7---------2---0-0-------4-------7---------2---|
A|---4-------7---x-----2---2-0-0-----4-------7---x-----2---2-|
E|-2-----2/5-------5-0-----------0-2-----2/5-------5-0-------|

Guitar2
E|-4-----5-4---4-5--4---5---5-4---4-2-|
B|---5-5-----5--------5---5-----5-----|
G|------------------------------------|
D|------------------------------------|
A|------------------------------------|
E|------------------------------------|
[ Tab from: http://www.guitartabs.cc/tabs/s/seether/fine_again_tab_ver_11.html ]
Verse
E|-------------------------------|
B|-------------------------------|
G|-----------------------2-2-2-2-|
D|-4-4--7777-7-7--2-2-2--0-0-0-0-|
A|-2-2--5555-5-5--2-2-2--0-0-0-0-|
E|-2-2--5555-5-5--0-0-0----------|

Chorus
E|------------------------------|
B|------------------------------|
G|------7777-7-7-------9999-9-9-|
D|-4-4--7777-7-7--9-9--9999-9-9-|
A|-2-2--5555-5-5--7-7--7777-7-7-|
E|-2-2--5555-5-5--7-7--7777-7-7-|

Repeat Verse

Repeat Chorus

Bridge             3x
E|-----|-------------|-----|
B|-----|-------------|-----|
G|-----|-------------|-----|
D|-----|-------------|-----|
A|--5--|-5\2-2-2/5-5-|-5\2-|
E|-----|-------------|-----|

Solo
|-9----10----9----9----10----|
|---10----10---10---10----10-|
|----------------------------|
|----------------------------|
|----------------------------|
|----------------------------|

Repeat Chorus

Last Chord
|----|
|----|
|----|
|-4--|
|-2--|
|-2--|

Any comments you can e-mail me at humbertocreed@hotmail.com

Tab key
X Mute note
/ Slide up
Comments