Seether - Fade Away Chords & Tabs

 

Fade Away Chords & Tabs

Seether Chords & Tabs

Version: 4 Type: Tab 0 ratings
1 star 2 stars 3 stars 4 stars 5 stars
comments

Fade Away Tab

Tabbed by:SANDROK
Email: SANDROK71@YAHOO.COM
THIS IS THE CORRECT WAY TO PLAY THE INTRO.
Tuning: STANDARD
[ Tab from: http://www.guitartabs.cc/tabs/s/seether/fade_away_tab_ver_4.html ]
e|-----------------------------------------------------|
B|-----------------------------------------------------|
G|-------4------5--4----4-----------4----5--4-----4----|
D|-3--3----3---------3------5---5-----5--------5-------|
A|-----------------------------------------------------|
E|-1------------------------3--------------------------|


e|-----------------------------------------------------|
B|-----------------------------------------------------|
G|-----------------------------------------------------|
D|---7--7--7-7/9-9-9--9/10-10-10-10/12---------------|
A|-----------------------------------------------------|
E|---5---------7--------8-----------8/12---------------|
Comments