Seether - Fade Away Chords & Tabs

 

Fade Away Chords & Tabs

Seether Chords & Tabs

Version: 1 Type: Bass Tab 0 ratings
1 star 2 stars 3 stars 4 stars 5 stars
comments

Fade Away Bass Tab

Artist: Seether
Song: Fade Away
Album: Disclaimer

Tuning: EADG

s=slur notes

intro/verse

g--------------------------------------------------------------|
d--------------------------------------------------------------|
a-----2---3-2---2-----2---3-2---2------------------------------|
e-1-1---1-----3---3-3---3-----3---5-5-5-5-7-7-7-7-8-8-8-8-10~--|

chorus: strum patern/# of strums may not be taotally right, but the notes are
g---------------------------------|
d---------------------------------|
a---------------0-0--0-0s3-3-3-3--|
e-3-3-3-1-1-1-1-------------------|
[ Tab from: http://www.guitartabs.cc/tabs/s/seether/fade_away_btab.html ]
interlude: "but i'm comin back"
int. fig. 1
g--------------------------------------------------------------------
d--------------------------------------------------------------------
a------------5~-7s5-4s5------------5~-5s4-2s4------------5~-4s5-4s5--
e-0-0-0-0-x--------------0-0-0-0-x-------------0-0-0-0-x-------------

"it's breaking me up, and tearin up"
int. fig. 2
g----------------------------|
d----------------------------|
a-3-3-3-3-x-3-3-3-3-x-3s5-0--|
e----------------------------|

play int. fig. 1, then play int. fig. 2, then play int. fig.1, 
then int. fig. 2 2 times.

for the little solo just play the intro/verse

there you go! have fun and appreciate it!
Comments