Seether - Driven Under Chords & Tabs

 

Driven Under Chords & Tabs

Seether Chords & Tabs

Version: 9 Type: Tab 0 ratings
1 star 2 stars 3 stars 4 stars 5 stars
comments

Driven Under Tab

Driven Under
Seether
Dislcaimer I&II
Tuning:EADGBE

Intro
E|--------------------------------------------------------------------------------|
B|--------------------------------------------------------------------------------|
G|--------------------------------------------------------------------------------| 2x
D|-------14-----14-----14-----14-----14--------14-----14-----14-12---14-12---14---|
A|-----12-----12-----12-----12-----12--------12-----12-----12---------------------|
E|--13-----13-----13-----13-----13------0-12-----12-----12--------12------12----0-|

1st Verse (pt 1)
E|--------------------------------------------------------------------------------|
B|--------------------------------------------------------------------------------|
G|--------------------------------------------------------------------------------|
D|-------14-----14-----14-----14-----14----------14-----14-----14-----14-----14---|8x
A|-----12-----12-----12-----12-----12---------12-----12-----12------12-----12-----|
E|--13-----13-----13-----13-----13------0--12-----12-----12-------12-----12-----0-|

(pt 2) Driven Under
Seether
Dislcaimer I&II
Tuning:EADGBE

Intro
E|--------------------------------------------------------------------------------|
B|--------------------------------------------------------------------------------|
G|--------------------------------------------------------------------------------| 2x
D|-------14-----14-----14-----14-----14--------14-----14-----14-12---14-12---14---|
A|-----12-----12-----12-----12-----12--------12-----12-----12---------------------|
E|--13-----13-----13-----13-----13------0-12-----12-----12--------12------12----0-|

1st Verse (pt 1)
E|--------------------------------------------------------------------------------|
B|--------------------------------------------------------------------------------|
G|--------------------------------------------------------------------------------|
D|-------14-----14-----14-----14-----14----------14-----14-----14-----14-----14---|8x
A|-----12-----12-----12-----12-----12---------12-----12-----12------12-----12-----|
E|--13-----13-----13-----13-----13------0--12-----12-----12-------12-----12-----0-|

(pt 2)
E|-----------------------------------------------------------------------|
B|-----------------------------------------------------------------------|
G|-----------------------------------------------------------------------|
D|-------14-----14-----14-----14-----14--------14-----14-----14----X-X--X|
A|-----12-----12-----12-----12-----12--------12-----12-----12------X-X--X|
E|--13-----13-----13-----13-----13------0--12-----12-----12--------X-X--X|

Chorus (strumming not shown, listen to song), (repeat as necessary)
E|-----------------------------------------0---------------|
B|---------------------------------------0-----------------|
G|---------------------------------------------------------|2x
D|--3-3-3-3-3/7-7-7-7-7\3-3-3-3-3\2-2-2-2----2-2-2---------|
A|--3-3-3-3-3/7-7-7-7-7\3-3-3-3-3\2-2-2-2----2-2-2---------|
E|--1-1-1-1-1/5-5-5-5-5\1-1-1-1-1\0-0-0-0----0-0-0---------|
                                         ^high notes here are
                                           faint(listen to song)

Interlude
E|--------------------------------------------------------------------------------|
B|--------------------------------------------------------------------------------|
G|--------------------------------------------------------------------------------|
D|-------14-----14-----14-----14-----14--------14-----14-----14-12---14-12---14---|
A|-----12-----12-----12-----12-----12--------12-----12-----12---------------------|
E|--13-----13-----13-----13-----13------0-12-----12-----12--------12------12----0-|

E|--------------------------------------------------------------------------------|
B|--------------------------------------------------------------------------------|
G|--------------------------------------------------------------------------------| 
D|-------14-----14-----14-----14-----14--------14-----14-----14-12---14-12---14\\-|
A|-----12-----12-----12-----12-----12--------12-----12-----12---------------------|
E|--13-----13-----13-----13-----13------0-12-----12-----12--------12------12------|


2nd Verse
Listen for strumming (13-12-14-X-X-X) (12-12-14-X-X-X)
then
E|-------------------------------------------------------------------------------|
B|-------------------------------------------------------------------------------|
G|-------------------------------------------------------------------------------|
D|-------14-----14-----14-----14-----14----------14-----14-----14----14-----14---|
A|-----12-----12-----12-----12-----12---------12-----12-----12-----12-----12-----|
E|--13-----13-----13-----13-----13------0--12-----12-----12------12-----12-----0-|
[ Tab from: http://www.guitartabs.cc/tabs/s/seether/driven_under_tab_ver_9.html ]
E|-----------------------------------------------------------------------|
B|-----------------------------------------------------------------------|
G|-----------------------------------------------------------------------|
D|-------14-----14-----14-----14-----14--------14-----14-----14----X-X--X|
A|-----12-----12-----12-----12-----12--------12-----12-----12------X-X--X|
E|--13-----13-----13-----13-----13------0--12-----12-----12--------X-X--X|

[Chorus]

Bridge ("we have to... succumb to...")
E|---------------------------------------------------------------|
B|---------------------------------------------------------------|
G|-7-7-7-7-7-x-5-5-5-5-5-x-5-5-5-5-5-x---------------------------|X3
D|-7-7-7-7-7-x-5-5-5-5-5-x-3-3-3-3-3-x-5-5-5-5-5-3---------------|
A|-5-5-5-5-5-x-3-3-3-3-3-x-3-3-3-3-3-x-5-5-5-5-5-3---------------|
E|-5-5-5-5-5-x-3-3-3-3-3-x-3-3-3-3-3-x-3-3-3-3-3-1---------------|

End of bridge
E|--------------|----------|
B|--------------|----------|
G|--------------|----------|
D|--------------|--X-X--X--|
A|--------------|--X-X--X--|
E|--1--1/5-5\1--|--X-X--X--|

Outro (strum w/ light distortion)
e|---------|-----|
B|---------|-----|
G|---------|-----|
D|-3--7--3-|--2--|
A|-3--7--3-|--2--|
E|-1--5--1-|--0--|
             /\ End on this

E|-----------------------------------------------------------------------|
B|-----------------------------------------------------------------------|
G|-----------------------------------------------------------------------|
D|-------14-----14-----14-----14-----14--------14-----14-----14----X-X--X|
A|-----12-----12-----12-----12-----12--------12-----12-----12------X-X--X|
E|--13-----13-----13-----13-----13------0--12-----12-----12--------X-X--X|

Chorus (strumming not shown, listen to song), (repeat as necessary)
E|-----------------------------------------0---------------|
B|---------------------------------------0-----------------|
G|---------------------------------------------------------|2x
D|--3-3-3-3-3/7-7-7-7-7\3-3-3-3-3\2-2-2-2----2-2-2---------|
A|--3-3-3-3-3/7-7-7-7-7\3-3-3-3-3\2-2-2-2----2-2-2---------|
E|--1-1-1-1-1/5-5-5-5-5\1-1-1-1-1\0-0-0-0----0-0-0---------|
                                         ^high notes here are
                                           faint(listen to song)

Interlude
E|--------------------------------------------------------------------------------|
B|--------------------------------------------------------------------------------|
G|--------------------------------------------------------------------------------| 
D|-------14-----14-----14-----14-----14--------14-----14-----14-12---14-12---14---|
A|-----12-----12-----12-----12-----12--------12-----12-----12---------------------|
E|--13-----13-----13-----13-----13------0-12-----12-----12--------12------12----0-|

E|--------------------------------------------------------------------------------|
B|--------------------------------------------------------------------------------|
G|--------------------------------------------------------------------------------| 
D|-------14-----14-----14-----14-----14--------14-----14-----14-12---14-12---14\\-|
A|-----12-----12-----12-----12-----12--------12-----12-----12---------------------|
E|--13-----13-----13-----13-----13------0-12-----12-----12--------12------12------|


2nd Verse
Listen for strumming (13-12-14-X-X-X) (12-12-14-X-X-X)
then
E|-------------------------------------------------------------------------------|
B|-------------------------------------------------------------------------------|
G|-------------------------------------------------------------------------------|
D|-------14-----14-----14-----14-----14----------14-----14-----14----14-----14---|
A|-----12-----12-----12-----12-----12---------12-----12-----12-----12-----12-----|
E|--13-----13-----13-----13-----13------0--12-----12-----12------12-----12-----0-|

E|-----------------------------------------------------------------------|
B|-----------------------------------------------------------------------|
G|-----------------------------------------------------------------------|
D|-------14-----14-----14-----14-----14--------14-----14-----14----X-X--X|
A|-----12-----12-----12-----12-----12--------12-----12-----12------X-X--X|
E|--13-----13-----13-----13-----13------0--12-----12-----12--------X-X--X|

[Chorus]

Bridge ("we have to... succumb to...")
E|---------------------------------------------------------------|
B|---------------------------------------------------------------|
G|-7-7-7-7-7-x-5-5-5-5-5-x-5-5-5-5-5-x---------------------------|X3
D|-7-7-7-7-7-x-5-5-5-5-5-x-3-3-3-3-3-x-5-5-5-5-5-3---------------|
A|-5-5-5-5-5-x-3-3-3-3-3-x-3-3-3-3-3-x-5-5-5-5-5-3---------------|
E|-5-5-5-5-5-x-3-3-3-3-3-x-3-3-3-3-3-x-3-3-3-3-3-1---------------|

End of bridge
E|--------------|----------|
B|--------------|----------|
G|--------------|----------|
D|--------------|--X-X--X--|
A|--------------|--X-X--X--|
E|--1--1/5-5\1--|--X-X--X--|

Outro (strum w/ light distortion)
e|---------|-----|
B|---------|-----|
G|---------|-----|
D|-3--7--3-|--2--|
A|-3--7--3-|--2--|
E|-1--5--1-|--0--|
             /\ End on this
Comments