Seether - Diseased Chords & Tabs

 

Diseased Chords & Tabs

Seether Chords & Tabs

Version: 2 Type: Tab 0 ratings
1 star 2 stars 3 stars 4 stars 5 stars
comments

Diseased Tab

SEETHER
DISEASED
KARMA AND EFFECT
2005

Tuning: Drop D tuned down 1/2 step (Dd)

INTRO/VERSE

eb------------------------------------------|
Bb------------------------------------------|
Gb------7-------7-8-7-----7-----------------|
Db----7-------5---------7-------5-5-5-5-5---|
Ab--5-----5-6---------5-----5-6-6-6-6-6-6---|
Db------------------------------------------|

PRE CHORUS

eb--13--13-13-13-13--13--13-13-13-13--12--12-12-12-12--12/13--13-13-13-13--|
Bb--10--10-10-10-10--10--10-10-10-10--10--10-10-10-10--10-----10-10-10-10--|
Gb-------------------------------------------------------------------------|

eb-------------------------------------------------------------------------|
Bb--12--12-12-12-12--12--12-12-12-12--12/13--13-13-13-13--10--10-10-10-10--|
Gb--12--12-12-12-12--12--12-12-12-12--12-----12-12-12-12--10--10-10-10-10--|

eb--13--13-13-13-13--13--13-13-13-13--12--12-12-12-12--12/13--13-13-13-13--|
Bb--10--10-10-10-10--10--10-10-10-10--10--10-10-10-10--10-----10-10-10-10--|
Gb-------------------------------------------------------------------------|

eb--------------------------------------------|
Bb--12--12-12-12-12--12/13--13-13-13-13--15~--|
Gb--12--12-12-12-12--12-----12-12-12-12--12~--|

SECOND VERSE

eb----------------------------------------------------------------|
Bb----------------------------------------------------------------|
Gb----------------------------------------------------------------|
Db--0-0--0--0-0-----0-0--0--0-0-----0-0--0--0-0-----0-0--0--0-0---|
Ab--0-0--0--0-0-----0-0--0--0-0-----0-0--0--0-0-----0-0--0--0-0---|
Db--0-0--0--0-0-----0-0--0--0-0-----0-0--0--0-0-----0-0--0--0-0---|

eb----------------------------------------------------------------|
Bb----------------------------------------------------------------|
Gb----------------------------------------------------------------|
Db--0-0--0--0-0-----0-0--0--0-0-----0-0--0--0-0-----1-1--1--1-1---|
Ab--0-0--0--0-0-----0-0--0--0-0-----0-0--0--0-0-----1-1--1--1-1---|
Db--0-0--0--0-0-----0-0--0--0-0-----0-0--0--0-0-----1-1--1--1-1---|


"Come sit close to me.."
[ Tab from: http://www.guitartabs.cc/tabs/s/seether/diseased_tab_ver_2.html ]
eb--------------------------------------------------|
Bb--------------------------------------------------|
Gb--------------------------------------------------|
Db--5--5-5-5-5--5--5-5-5-5--3--3-3-3-3--6--6-6-6-6--|
Ab--5--5-5-5-5--5--5-5-5-5--3--3-3-3-3--6--6-6-6-6--|
Db--5--5-5-5-5--5--5-5-5-5--3--3-3-3-3--6--6-6-6-6--|

PRE CHORUS

CHORUS

Guitar 1

eb---------------------------------------------------|
Bb---------------------------------------------------|
Gb---------------------------------------------------|
Db--0-0-0-0-0-0-0-0-0-0-3-0-5-5-5-5-5-5-3-3-3-3-3-3--|
Ab--0-0-0-0-0-0-0-0-0-0-3-0-5-5-5-5-5-5-3-3-3-3-3-3--|
Db--0-0-0-0-0-0-0-0-0-0-3-0-5-5-5-5-5-5-3-3-3-3-3-3--|

Guitar 2

eb---------------------------------------------------------------|
Bb---------------------------------------------------------------|
Gb--5/7-7-7--7/9-9-9--9/10-10-10---------------------------------|
Db----------------------------------3---5-5-5-5-5-5-3-3-3-3-3-3--|
Ab--3/5-5-5--5/7-7-7--7/8--8--8---5---5-5-5-5-5-5-5-3-3-3-3-3-3--|
Db--------------------------------------5-5-5-5-5-5-3-3-3-3-3-3--|

BRIDGE

eb---------------------------------------------------|
Bb---------------------------------------------------|
Gb--4-4-4-4-4-4-------------4-4-4-4-4-4--------------|
Db--4-4-4-4-4-4-3-3-3-1-1-1-4-4-4-4-4-4-3-3-3-1-1-1--|
Ab--2-2-2-2-2-2-3-3-3-1-1-1-2-2-2-2-2-2-3-3-3-1-1-1--|
Db--------------3-3-3-1-1-1-------------3-3-3-1-1-1--|

PRE CHORUS

CHORUS

OUTRO

Guitar 1

eb--------------------------------------------------------------|
Bb--------------------------------------------------------------|
Gb--------------------------------------------------------------|
Db--0-0--0--0-0-----0-0--0--0-0-----0-0--0--0-0---1-1--1--1-1---|
Ab--0-0--0--0-0-----0-0--0--0-0-----0-0--0--0-0---1-1--1--1-1---|
Db--0-0--0--0-0-----0-0--0--0-0-----0-0--0--0-0---1-1--1--1-1---|

Guitar 2

eb----------------------------10-11-10--|
Bb--10------------10------11------------|
Gb------10--9--7------10----------------|
Db--------------------------------------|
Ab--------------------------------------|
Db--------------------------------------|

THE END
Comments